ISO-10303-21;
HEADER;
FILE_DESCRIPTION (( 'STEP AP203' ),
    '1' );
FILE_NAME ('381935.step',
    '2021-12-13T13:56:03',
    ( '' ),
    ( '' ),
    'SwSTEP 2.0',
    'SolidWorks 2019',
    '' );
FILE_SCHEMA (( 'CONFIG_CONTROL_DESIGN' ));
ENDSEC;

DATA;
#1 = FACE_OUTER_BOUND ( 'NONE', #51, .T. ) ;
#2 = CALENDAR_DATE ( 2021, 13, 12 ) ;
#3 = PRODUCT_DEFINITION ( 'UNKNOWN', '', #314, #243 ) ;
#4 = DATE_AND_TIME ( #187, #41 ) ;
#5 = CARTESIAN_POINT ( 'NONE',  ( 1.047444401652940007E-14, 0.8349999999999995204, 3.000000000000000000 ) ) ;
#6 = AXIS2_PLACEMENT_3D ( 'NONE', #339, #213, #310 ) ;
#7 = APPLICATION_PROTOCOL_DEFINITION ( 'international standard', 'config_control_design', 1994, #180 ) ;
#8 = APPROVAL_DATE_TIME ( #4, #140 ) ;
#9 = CARTESIAN_POINT ( 'NONE',  ( 1.026447565081798318E-14, 0.5489692899384941427, 2.939862669928808181 ) ) ;
#10 = VERTEX_POINT ( 'NONE', #58 ) ;
#11 = CIRCLE ( 'NONE', #287, 0.5625273371958185997 ) ;
#12 = EDGE_CURVE ( 'NONE', #169, #169, #60, .T. ) ;
#13 = EDGE_LOOP ( 'NONE', ( #241 ) ) ;
#14 = DIRECTION ( 'NONE',  ( -3.491481338843133355E-15, 1.224646799147353207E-16, -1.000000000000000000 ) ) ;
#15 = ADVANCED_FACE ( 'NONE', ( #96, #124 ), #70, .T. ) ;
#16 = CARTESIAN_POINT ( 'NONE',  ( 1.047444401652940007E-14, -3.673940397442059868E-16, 3.000000000000000000 ) ) ;
#17 = ADVANCED_FACE ( 'NONE', ( #177 ), #153, .F. ) ;
#18 = DIRECTION ( 'NONE',  ( -3.491481338843133355E-15, 1.224646799147353207E-16, -1.000000000000000000 ) ) ;
#19 = DIRECTION ( 'NONE',  ( -3.491481338843133355E-15, 1.224646799147353207E-16, -1.000000000000000000 ) ) ;
#20 = DIRECTION ( 'NONE',  ( 0.0000000000000000000, 1.000000000000000000, 0.0000000000000000000 ) ) ;
#21 = FACE_BOUND ( 'NONE', #317, .T. ) ;
#22 = CARTESIAN_POINT ( 'NONE',  ( 3.316907271900976056E-14, -1.163414459189985485E-15, 9.500000000000000000 ) ) ;
#23 = AXIS2_PLACEMENT_3D ( 'NONE', #127, #125, #307 ) ;
#24 = CC_DESIGN_APPROVAL ( #260, ( #3 ) ) ;
#25 = SECURITY_CLASSIFICATION ( '', '', #92 ) ;
#26 = UNCERTAINTY_MEASURE_WITH_UNIT (LENGTH_MEASURE( 1.000000000000000082E-05 ), #275, 'distance_accuracy_value', 'NONE');
#27 = PERSON_AND_ORGANIZATION ( #45, #35 ) ;
#28 = MANIFOLD_SOLID_BREP ( 'Corps-Déplacer/Copier1[2]', #214 ) ;
#29 = VERTEX_POINT ( 'NONE', #5 ) ;
#30 = MANIFOLD_SOLID_BREP ( 'Corps-Déplacer/Copier1[1]', #286 ) ;
#31 = PERSON_AND_ORGANIZATION ( #45, #35 ) ;
#32 = CARTESIAN_POINT ( 'NONE',  ( 3.316907271900976056E-14, -1.163414459189985485E-15, 9.500000000000000000 ) ) ;
#33 = ADVANCED_FACE ( 'NONE', ( #122, #257 ), #205, .T. ) ;
#34 = APPROVAL_ROLE ( '' ) ;
#35 = ORGANIZATION ( 'UNSPECIFIED', 'UNSPECIFIED', '' ) ;
#36 = LOCAL_TIME ( 14, 56, 3.000000000000000000, #270 ) ;
#37 = CARTESIAN_POINT ( 'NONE',  ( 1.047444401652940007E-14, -3.673940397442059868E-16, 3.000000000000000000 ) ) ;
#38 = PERSON_AND_ORGANIZATION_ROLE ( 'creator' ) ;
#39 = VERTEX_POINT ( 'NONE', #324 ) ;
#40 = CIRCLE ( 'NONE', #49, 0.4999999999999998890 ) ;
#41 = LOCAL_TIME ( 14, 56, 3.000000000000000000, #247 ) ;
#42 = EDGE_LOOP ( 'NONE', ( #105 ) ) ;
#43 = ADVANCED_FACE ( 'NONE', ( #89, #1 ), #261, .T. ) ;
#44 = EDGE_LOOP ( 'NONE', ( #219 ) ) ;
#45 = PERSON ( 'UNSPECIFIED', 'UNSPECIFIED', 'UNSPECIFIED', ('UNSPECIFIED'), ('UNSPECIFIED'), ('UNSPECIFIED') ) ;
#46 = DIRECTION ( 'NONE',  ( 0.0000000000000000000, 1.000000000000000000, 0.0000000000000000000 ) ) ;
#47 = FACE_BOUND ( 'NONE', #208, .T. ) ;
#48 = ADVANCED_FACE ( 'NONE', ( #285, #268 ), #223, .T. ) ;
#49 = AXIS2_PLACEMENT_3D ( 'NONE', #102, #283, #182 ) ;
#50 = DIRECTION ( 'NONE',  ( 0.0000000000000000000, 1.000000000000000000, 0.0000000000000000000 ) ) ;
#51 = EDGE_LOOP ( 'NONE', ( #259 ) ) ;
#52 = CARTESIAN_POINT ( 'NONE',  ( 3.316907271900976056E-14, 2.969524369670473466E-32, 9.500000000000000000 ) ) ;
#53 = DIRECTION ( 'NONE',  ( -3.491481338843133355E-15, 1.224646799147353207E-16, -1.000000000000000000 ) ) ;
#54 = PERSON_AND_ORGANIZATION ( #45, #35 ) ;
#55 = DIRECTION ( 'NONE',  ( -3.491481338843133355E-15, 1.224646799147353207E-16, -1.000000000000000000 ) ) ;
#56 = LOCAL_TIME ( 14, 56, 3.000000000000000000, #93 ) ;
#57 = COORDINATED_UNIVERSAL_TIME_OFFSET ( 1, 0, .AHEAD. ) ;
#58 = CARTESIAN_POINT ( 'NONE',  ( 5.237222008264700033E-15, 0.4999999999999996669, 1.500000000000000000 ) ) ;
#59 = DIRECTION ( 'NONE',  ( -3.491481338843133355E-15, 1.224646799147353207E-16, -1.000000000000000000 ) ) ;
#60 = CIRCLE ( 'NONE', #325, 1.959999999999999520 ) ;
#61 = CIRCLE ( 'NONE', #150, 1.959999999999999964 ) ;
#62 = VERTEX_POINT ( 'NONE', #222 ) ;
#63 = FACE_OUTER_BOUND ( 'NONE', #76, .T. ) ;
#64 = SHAPE_DEFINITION_REPRESENTATION ( #226, #121 ) ;
#65 = AXIS2_PLACEMENT_3D ( 'NONE', #136, #328, #201 ) ;
#66 = ORIENTED_EDGE ( 'NONE', *, *, #278, .T. ) ;
#67 = DIRECTION ( 'NONE',  ( 0.0000000000000000000, -1.000000000000000000, 0.0000000000000000000 ) ) ;
#68 = EDGE_LOOP ( 'NONE', ( #254 ) ) ;
#69 = DIRECTION ( 'NONE',  ( -4.275831445896958607E-31, -1.000000000000000000, -1.224646799147353207E-16 ) ) ;
#70 = CONICAL_SURFACE ( 'NONE', #305, 1.959999999999999520, 0.2217440814658727666 ) ;
#71 = AXIS2_PLACEMENT_3D ( 'NONE', #72, #282, #174 ) ;
#72 = CARTESIAN_POINT ( 'NONE',  ( 5.237222008264700033E-15, 3.749399456654640598E-33, 1.500000000000000000 ) ) ;
#73 = CYLINDRICAL_SURFACE ( 'NONE', #178, 0.5000000000000000000 ) ;
#74 = EDGE_LOOP ( 'NONE', ( #110 ) ) ;
#75 = CARTESIAN_POINT ( 'NONE',  ( -1.924197383177430044E-31, 6.749175887094222942E-33, -5.511120342447521859E-17 ) ) ;
#76 = EDGE_LOOP ( 'NONE', ( #134 ) ) ;
#77 = DIRECTION ( 'NONE',  ( 4.275831445896958607E-31, 1.000000000000000000, 1.224646799147353207E-16 ) ) ;
#78 = DIRECTION ( 'NONE',  ( 0.0000000000000000000, 1.000000000000000000, 0.0000000000000000000 ) ) ;
#79 = ORIENTED_EDGE ( 'NONE', *, *, #311, .F. ) ;
#80 = APPROVAL_PERSON_ORGANIZATION ( #31, #260, #165 ) ;
#81 = PLANE ( 'NONE',  #198 ) ;
#82 = ADVANCED_FACE ( 'NONE', ( #312 ), #236, .F. ) ;
#83 = APPLICATION_PROTOCOL_DEFINITION ( 'international standard', 'config_control_design', 1994, #337 ) ;
#84 = DIRECTION ( 'NONE',  ( 4.334843211237535392E-31, 1.000000000000000000, 1.224646799147353207E-16 ) ) ;
#85 = ORIENTED_EDGE ( 'NONE', *, *, #231, .F. ) ;
#86 = PERSON_AND_ORGANIZATION ( #45, #35 ) ;
#87 = CARTESIAN_POINT ( 'NONE',  ( 0.0000000000000000000, 0.0000000000000000000, 0.0000000000000000000 ) ) ;
#88 = CARTESIAN_POINT ( 'NONE',  ( 0.0000000000000000000, 0.0000000000000000000, 0.0000000000000000000 ) ) ;
#89 = FACE_OUTER_BOUND ( 'NONE', #179, .T. ) ;
#90 = AXIS2_PLACEMENT_3D ( 'NONE', #88, #297, #294 ) ;
#91 = CC_DESIGN_SECURITY_CLASSIFICATION ( #25, ( #314 ) ) ;
#92 = SECURITY_CLASSIFICATION_LEVEL ( 'unclassified' ) ;
#93 = COORDINATED_UNIVERSAL_TIME_OFFSET ( 1, 0, .AHEAD. ) ;
#94 = DIRECTION ( 'NONE',  ( 0.0000000000000000000, 1.000000000000000000, 0.0000000000000000000 ) ) ;
#95 = PERSON_AND_ORGANIZATION ( #45, #35 ) ;
#96 = FACE_BOUND ( 'NONE', #42, .T. ) ;
#97 = FACE_OUTER_BOUND ( 'NONE', #309, .T. ) ;
#98 = CIRCLE ( 'NONE', #6, 1.599999999999996314 ) ;
#99 = ORIENTED_EDGE ( 'NONE', *, *, #172, .T. ) ;
#100 = PLANE ( 'NONE',  #71 ) ;
#101 = FACE_BOUND ( 'NONE', #152, .T. ) ;
#102 = CARTESIAN_POINT ( 'NONE',  ( 5.237222008264700033E-15, -1.836970198721029934E-16, 1.500000000000000000 ) ) ;
#103 = ADVANCED_FACE ( 'NONE', ( #63, #128 ), #251, .F. ) ;
#104 = CIRCLE ( 'NONE', #336, 0.5489692899384944758 ) ;
#105 = ORIENTED_EDGE ( 'NONE', *, *, #278, .F. ) ;
#106 =( NAMED_UNIT ( * ) PLANE_ANGLE_UNIT ( ) SI_UNIT ( $, .RADIAN. ) );
#107 = CARTESIAN_POINT ( 'NONE',  ( 2.789689482689513687E-14, 1.959999999999998632, 7.989988236952308753 ) ) ;
#108 = PERSON_AND_ORGANIZATION ( #45, #35 ) ;
#109 = VERTEX_POINT ( 'NONE', #320 ) ;
#110 = ORIENTED_EDGE ( 'NONE', *, *, #253, .T. ) ;
#111 = CIRCLE ( 'NONE', #156, 0.8349999999999998535 ) ;
#112 = PERSON_AND_ORGANIZATION ( #45, #35 ) ;
#113 = CC_DESIGN_PERSON_AND_ORGANIZATION_ASSIGNMENT ( #108, #225, ( #314 ) ) ;
#114 = APPROVAL_STATUS ( 'not_yet_approved' ) ;
#115 = VERTEX_POINT ( 'NONE', #166 ) ;
#116 = CC_DESIGN_PERSON_AND_ORGANIZATION_ASSIGNMENT ( #86, #141, ( #176 ) ) ;
#117 = AXIS2_PLACEMENT_3D ( 'NONE', #126, #55, #340 ) ;
#118 = DATE_AND_TIME ( #137, #36 ) ;
#119 = EDGE_LOOP ( 'NONE', ( #149 ) ) ;
#120 = DIRECTION ( 'NONE',  ( 3.491481338843133355E-15, -1.224646799147353207E-16, 1.000000000000000000 ) ) ;
#121 = ADVANCED_BREP_SHAPE_REPRESENTATION ( '381935', ( #30, #28, #240 ), #298 ) ;
#122 = FACE_OUTER_BOUND ( 'NONE', #227, .T. ) ;
#123 = CARTESIAN_POINT ( 'NONE',  ( 1.047444401652940007E-14, 1.047977647748402172E-32, 3.000000000000000000 ) ) ;
#124 = FACE_OUTER_BOUND ( 'NONE', #68, .T. ) ;
#125 = DIRECTION ( 'NONE',  ( -3.491481338843133355E-15, 1.224646799147353207E-16, -1.000000000000000000 ) ) ;
#126 = CARTESIAN_POINT ( 'NONE',  ( 1.312796983405018142E-13, -4.604671964794046935E-15, 37.59999999999999432 ) ) ;
#127 = CARTESIAN_POINT ( 'NONE',  ( 8.728703347107833388E-15, -3.061616997868383141E-16, 2.500000000000000000 ) ) ;
#128 = FACE_OUTER_BOUND ( 'NONE', #334, .T. ) ;
#129 = ADVANCED_FACE ( 'NONE', ( #47, #269 ), #264, .F. ) ;
#130 = CARTESIAN_POINT ( 'NONE',  ( 5.237222008264700033E-15, -1.836970198721029934E-16, 1.500000000000000000 ) ) ;
#131 = ORIENTED_EDGE ( 'NONE', *, *, #311, .T. ) ;
#132 = DIRECTION ( 'NONE',  ( -4.275831445896958607E-31, -1.000000000000000000, -1.224646799147353207E-16 ) ) ;
#133 = EDGE_CURVE ( 'NONE', #299, #299, #155, .T. ) ;
#134 = ORIENTED_EDGE ( 'NONE', *, *, #151, .T. ) ;
#135 = AXIS2_PLACEMENT_3D ( 'NONE', #16, #185, #315 ) ;
#136 = CARTESIAN_POINT ( 'NONE',  ( 1.326762908760390423E-13, 1.199807826129476644E-32, 38.00000000000000000 ) ) ;
#137 = CALENDAR_DATE ( 2021, 13, 12 ) ;
#138 = ADVANCED_FACE ( 'NONE', ( #101, #218 ), #159, .F. ) ;
#139 = PERSON_AND_ORGANIZATION_ROLE ( 'creator' ) ;
#140 = APPROVAL ( #114, 'UNSPECIFIED' ) ;
#141 = PERSON_AND_ORGANIZATION_ROLE ( 'design_owner' ) ;
#142 = DIRECTION ( 'NONE',  ( -3.491481338843133355E-15, 1.224646799147353207E-16, -1.000000000000000000 ) ) ;
#143 = MECHANICAL_CONTEXT ( 'NONE', #180, 'mechanical' ) ;
#144 = EDGE_CURVE ( 'NONE', #276, #276, #98, .T. ) ;
#145 = CARTESIAN_POINT ( 'NONE',  ( 1.312796983405018142E-13, 1.999999999999992228, 37.59999999999999432 ) ) ;
#146 = AXIS2_PLACEMENT_3D ( 'NONE', #52, #188, #316 ) ;
#147 = APPROVAL ( #196, 'UNSPECIFIED' ) ;
#148 = ORIENTED_EDGE ( 'NONE', *, *, #12, .F. ) ;
#149 = ORIENTED_EDGE ( 'NONE', *, *, #258, .T. ) ;
#150 = AXIS2_PLACEMENT_3D ( 'NONE', #22, #288, #50 ) ;
#151 = EDGE_CURVE ( 'NONE', #277, #277, #104, .T. ) ;
#152 = EDGE_LOOP ( 'NONE', ( #343 ) ) ;
#153 = PLANE ( 'NONE',  #250 ) ;
#154 = EDGE_LOOP ( 'NONE', ( #157 ) ) ;
#155 = CIRCLE ( 'NONE', #245, 0.4999999999999996669 ) ;
#156 = AXIS2_PLACEMENT_3D ( 'NONE', #37, #59, #273 ) ;
#157 = ORIENTED_EDGE ( 'NONE', *, *, #231, .T. ) ;
#158 = CARTESIAN_POINT ( 'NONE',  ( 1.326762908760390423E-13, -4.653657836759941941E-15, 38.00000000000000000 ) ) ;
#159 = PLANE ( 'NONE',  #146 ) ;
#160 = DIRECTION ( 'NONE',  ( 3.491481338843133355E-15, -1.224646799147353207E-16, 1.000000000000000000 ) ) ;
#161 = DIRECTION ( 'NONE',  ( 4.275831445896958607E-31, 1.000000000000000000, 1.224646799147353207E-16 ) ) ;
#162 = APPROVAL_ROLE ( '' ) ;
#163 = DIRECTION ( 'NONE',  ( -3.491481338843133355E-15, 1.224646799147353207E-16, -1.000000000000000000 ) ) ;
#164 = CC_DESIGN_APPROVAL ( #147, ( #25 ) ) ;
#165 = APPROVAL_ROLE ( '' ) ;
#166 = CARTESIAN_POINT ( 'NONE',  ( 3.316907271900976056E-14, 1.999999999999995337, 9.500000000000000000 ) ) ;
#167 = EDGE_CURVE ( 'NONE', #39, #39, #40, .T. ) ;
#168 = DIRECTION ( 'NONE',  ( 1.000000000000000000, 0.0000000000000000000, 0.0000000000000000000 ) ) ;
#169 = VERTEX_POINT ( 'NONE', #107 ) ;
#170 = CARTESIAN_POINT ( 'NONE',  ( 0.0000000000000000000, 0.0000000000000000000, 0.0000000000000000000 ) ) ;
#171 = DIRECTION ( 'NONE',  ( 0.0000000000000000000, 1.000000000000000000, 0.0000000000000000000 ) ) ;
#172 = EDGE_CURVE ( 'NONE', #197, #197, #61, .T. ) ;
#173 = CARTESIAN_POINT ( 'NONE',  ( 1.326762908760390423E-13, 1.599999999999991873, 38.00000000000000000 ) ) ;
#174 = DIRECTION ( 'NONE',  ( -4.275831445896958607E-31, -1.000000000000000000, -1.224646799147353207E-16 ) ) ;
#175 = DIRECTION ( 'NONE',  ( 3.491481338843133355E-15, -1.224646799147353207E-16, 1.000000000000000000 ) ) ;
#176 = PRODUCT ( '381935', '381935', '', ( #143 ) ) ;
#177 = FACE_OUTER_BOUND ( 'NONE', #44, .T. ) ;
#178 = AXIS2_PLACEMENT_3D ( 'NONE', #87, #19, #77 ) ;
#179 = EDGE_LOOP ( 'NONE', ( #184 ) ) ;
#180 = APPLICATION_CONTEXT ( 'configuration controlled 3d designs of mechanical parts and assemblies' ) ;
#181 = EDGE_LOOP ( 'NONE', ( #233 ) ) ;
#182 = DIRECTION ( 'NONE',  ( 0.0000000000000000000, 1.000000000000000000, 0.0000000000000000000 ) ) ;
#183 = APPROVAL_PERSON_ORGANIZATION ( #95, #147, #162 ) ;
#184 = ORIENTED_EDGE ( 'NONE', *, *, #133, .F. ) ;
#185 = DIRECTION ( 'NONE',  ( 3.491481338843133355E-15, -1.224646799147353207E-16, 1.000000000000000000 ) ) ;
#186 = CC_DESIGN_PERSON_AND_ORGANIZATION_ASSIGNMENT ( #54, #139, ( #314 ) ) ;
#187 = CALENDAR_DATE ( 2021, 13, 12 ) ;
#188 = DIRECTION ( 'NONE',  ( 3.491481338843133355E-15, -1.224646799147353207E-16, 1.000000000000000000 ) ) ;
#189 = DIRECTION ( 'NONE',  ( 0.0000000000000000000, 0.0000000000000000000, 1.000000000000000000 ) ) ;
#190 = VERTEX_POINT ( 'NONE', #145 ) ;
#191 = CIRCLE ( 'NONE', #306, 0.4999999999999998890 ) ;
#192 = AXIS2_PLACEMENT_3D ( 'NONE', #32, #142, #94 ) ;
#193 = PERSON_AND_ORGANIZATION_ROLE ( 'classification_officer' ) ;
#194 = APPROVAL_DATE_TIME ( #295, #260 ) ;
#195 = ADVANCED_FACE ( 'NONE', ( #21, #97 ), #238, .T. ) ;
#196 = APPROVAL_STATUS ( 'not_yet_approved' ) ;
#197 = VERTEX_POINT ( 'NONE', #319 ) ;
#198 = AXIS2_PLACEMENT_3D ( 'NONE', #289, #160, #132 ) ;
#199 = APPROVAL_PERSON_ORGANIZATION ( #27, #140, #34 ) ;
#200 = FACE_OUTER_BOUND ( 'NONE', #267, .T. ) ;
#201 = DIRECTION ( 'NONE',  ( 4.275831445896958607E-31, 1.000000000000000000, 1.224646799147353207E-16 ) ) ;
#202 = CARTESIAN_POINT ( 'NONE',  ( 2.789689482689513687E-14, -9.784913519608648506E-16, 7.989988236952308753 ) ) ;
#203 = ORIENTED_EDGE ( 'NONE', *, *, #253, .F. ) ;
#204 = EDGE_LOOP ( 'NONE', ( #301 ) ) ;
#205 = CYLINDRICAL_SURFACE ( 'NONE', #335, 1.959999999999999964 ) ;
#206 = ADVANCED_FACE ( 'NONE', ( #230 ), #81, .F. ) ;
#207 = FACE_OUTER_BOUND ( 'NONE', #224, .T. ) ;
#208 = EDGE_LOOP ( 'NONE', ( #79 ) ) ;
#209 = CC_DESIGN_DATE_AND_TIME_ASSIGNMENT ( #274, #272, ( #3 ) ) ;
#210 = DIRECTION ( 'NONE',  ( -4.275831445896958607E-31, -1.000000000000000000, -1.224646799147353207E-16 ) ) ;
#211 = CARTESIAN_POINT ( 'NONE',  ( 0.0000000000000000000, 0.0000000000000000000, 0.0000000000000000000 ) ) ;
#212 = FACE_OUTER_BOUND ( 'NONE', #181, .T. ) ;
#213 = DIRECTION ( 'NONE',  ( -3.491481338843133355E-15, 1.224646799147353207E-16, -1.000000000000000000 ) ) ;
#214 = CLOSED_SHELL ( 'NONE', ( #206, #43, #234 ) ) ;
#215 = AXIS2_PLACEMENT_3D ( 'NONE', #158, #53, #20 ) ;
#216 = DIRECTION ( 'NONE',  ( -3.491481338843133355E-15, 1.224646799147353207E-16, -1.000000000000000000 ) ) ;
#217 = APPROVAL_STATUS ( 'not_yet_approved' ) ;
#218 = FACE_OUTER_BOUND ( 'NONE', #119, .T. ) ;
#219 = ORIENTED_EDGE ( 'NONE', *, *, #255, .T. ) ;
#220 = CARTESIAN_POINT ( 'NONE',  ( 1.047444401652940007E-14, -3.673940397442059868E-16, 3.000000000000000000 ) ) ;
#221 = PERSON_AND_ORGANIZATION ( #45, #35 ) ;
#222 = CARTESIAN_POINT ( 'NONE',  ( 8.728703347107833388E-15, 0.4999999999999996669, 2.500000000000000000 ) ) ;
#223 = CONICAL_SURFACE ( 'NONE', #215, 1.599999999999996314, 0.7853981633974433940 ) ;
#224 = EDGE_LOOP ( 'NONE', ( #256 ) ) ;
#225 = PERSON_AND_ORGANIZATION_ROLE ( 'design_supplier' ) ;
#226 = PRODUCT_DEFINITION_SHAPE ( 'NONE', 'NONE',  #3 ) ;
#227 = EDGE_LOOP ( 'NONE', ( #148 ) ) ;
#228 = ADVANCED_FACE ( 'NONE', ( #207, #308 ), #73, .T. ) ;
#229 = CARTESIAN_POINT ( 'NONE',  ( 0.0000000000000000000, 0.0000000000000000000, 0.0000000000000000000 ) ) ;
#230 = FACE_OUTER_BOUND ( 'NONE', #204, .T. ) ;
#231 = EDGE_CURVE ( 'NONE', #62, #62, #326, .T. ) ;
#232 = CIRCLE ( 'NONE', #192, 1.999999999999996669 ) ;
#233 = ORIENTED_EDGE ( 'NONE', *, *, #167, .F. ) ;
#234 = ADVANCED_FACE ( 'NONE', ( #212 ), #100, .T. ) ;
#235 = DIRECTION ( 'NONE',  ( 3.491481338843133355E-15, -1.224646799147353207E-16, 1.000000000000000000 ) ) ;
#236 = PLANE ( 'NONE',  #65 ) ;
#237 = EDGE_LOOP ( 'NONE', ( #203 ) ) ;
#238 = CONICAL_SURFACE ( 'NONE', #135, 0.5625273371958185997, 0.2217440814658733494 ) ;
#239 = DIRECTION ( 'NONE',  ( -3.491481338843133355E-15, 1.224646799147353207E-16, -1.000000000000000000 ) ) ;
#240 = AXIS2_PLACEMENT_3D ( 'NONE', #170, #189, #168 ) ;
#241 = ORIENTED_EDGE ( 'NONE', *, *, #144, .F. ) ;
#242 = PRODUCT_RELATED_PRODUCT_CATEGORY ( 'detail', '', ( #176 ) ) ;
#243 = DESIGN_CONTEXT ( 'detailed design', #337, 'design' ) ;
#244 = CYLINDRICAL_SURFACE ( 'NONE', #90, 1.999999999999996669 ) ;
#245 = AXIS2_PLACEMENT_3D ( 'NONE', #75, #239, #342 ) ;
#246 = CC_DESIGN_APPROVAL ( #140, ( #314 ) ) ;
#247 = COORDINATED_UNIVERSAL_TIME_OFFSET ( 1, 0, .AHEAD. ) ;
#248 = CARTESIAN_POINT ( 'NONE',  ( 2.137183397710476993E-32, 0.4999999999999996669, 6.121136532892404794E-18 ) ) ;
#249 = FACE_OUTER_BOUND ( 'NONE', #74, .T. ) ;
#250 = AXIS2_PLACEMENT_3D ( 'NONE', #280, #175, #69 ) ;
#251 = TOROIDAL_SURFACE ( 'NONE', #313, 2.500000000000000000, 2.000000000000000000 ) ;
#252 = ORIENTED_EDGE ( 'NONE', *, *, #144, .T. ) ;
#253 = EDGE_CURVE ( 'NONE', #190, #190, #271, .T. ) ;
#254 = ORIENTED_EDGE ( 'NONE', *, *, #12, .T. ) ;
#255 = EDGE_CURVE ( 'NONE', #10, #10, #191, .T. ) ;
#256 = ORIENTED_EDGE ( 'NONE', *, *, #255, .F. ) ;
#257 = FACE_OUTER_BOUND ( 'NONE', #338, .T. ) ;
#258 = EDGE_CURVE ( 'NONE', #115, #115, #232, .T. ) ;
#259 = ORIENTED_EDGE ( 'NONE', *, *, #167, .T. ) ;
#260 = APPROVAL ( #217, 'UNSPECIFIED' ) ;
#261 = CYLINDRICAL_SURFACE ( 'NONE', #262, 0.4999999999999997780 ) ;
#262 = AXIS2_PLACEMENT_3D ( 'NONE', #211, #265, #161 ) ;
#263 = AXIS2_PLACEMENT_3D ( 'NONE', #123, #235, #210 ) ;
#264 = PLANE ( 'NONE',  #263 ) ;
#265 = DIRECTION ( 'NONE',  ( -3.491481338843133355E-15, 1.224646799147353207E-16, -1.000000000000000000 ) ) ;
#266 = DIRECTION ( 'NONE',  ( -3.491481338843133355E-15, 1.224646799147353207E-16, -1.000000000000000000 ) ) ;
#267 = EDGE_LOOP ( 'NONE', ( #284 ) ) ;
#268 = FACE_BOUND ( 'NONE', #303, .T. ) ;
#269 = FACE_OUTER_BOUND ( 'NONE', #330, .T. ) ;
#270 = COORDINATED_UNIVERSAL_TIME_OFFSET ( 1, 0, .AHEAD. ) ;
#271 = CIRCLE ( 'NONE', #117, 1.999999999999997113 ) ;
#272 = DATE_TIME_ROLE ( 'creation_date' ) ;
#273 = DIRECTION ( 'NONE',  ( 0.0000000000000000000, 1.000000000000000000, 0.0000000000000000000 ) ) ;
#274 = DATE_AND_TIME ( #2, #56 ) ;
#275 =( LENGTH_UNIT ( ) NAMED_UNIT ( * ) SI_UNIT ( .MILLI., .METRE. ) );
#276 = VERTEX_POINT ( 'NONE', #173 ) ;
#277 = VERTEX_POINT ( 'NONE', #9 ) ;
#278 = EDGE_CURVE ( 'NONE', #29, #29, #111, .T. ) ;
#279 = DIRECTION ( 'NONE',  ( 4.275831445896958607E-31, 1.000000000000000000, 1.224646799147353207E-16 ) ) ;
#280 = CARTESIAN_POINT ( 'NONE',  ( 5.237222008264700033E-15, 3.749399456654640598E-33, 1.500000000000000000 ) ) ;
#281 = LOCAL_TIME ( 14, 56, 3.000000000000000000, #57 ) ;
#282 = DIRECTION ( 'NONE',  ( 3.491481338843133355E-15, -1.224646799147353207E-16, 1.000000000000000000 ) ) ;
#283 = DIRECTION ( 'NONE',  ( -3.491481338843133355E-15, 1.224646799147353207E-16, -1.000000000000000000 ) ) ;
#284 = ORIENTED_EDGE ( 'NONE', *, *, #258, .F. ) ;
#285 = FACE_OUTER_BOUND ( 'NONE', #237, .T. ) ;
#286 = CLOSED_SHELL ( 'NONE', ( #17, #228, #103, #195, #129, #15, #33, #138, #290, #48, #82 ) ) ;
#287 = AXIS2_PLACEMENT_3D ( 'NONE', #220, #327, #171 ) ;
#288 = DIRECTION ( 'NONE',  ( -3.491481338843133355E-15, 1.224646799147353207E-16, -1.000000000000000000 ) ) ;
#289 = CARTESIAN_POINT ( 'NONE',  ( -9.620986915887150220E-32, 3.374587943547111471E-33, -2.755560171223760929E-17 ) ) ;
#290 = ADVANCED_FACE ( 'NONE', ( #200, #249 ), #244, .T. ) ;
#291 = CALENDAR_DATE ( 2021, 13, 12 ) ;
#292 = CARTESIAN_POINT ( 'NONE',  ( 1.026447565081798318E-14, -3.600293408661107260E-16, 2.939862669928808181 ) ) ;
#293 = COORDINATED_UNIVERSAL_TIME_OFFSET ( 1, 0, .AHEAD. ) ;
#294 = DIRECTION ( 'NONE',  ( 4.275831445896958607E-31, 1.000000000000000000, 1.224646799147353207E-16 ) ) ;
#295 = DATE_AND_TIME ( #321, #281 ) ;
#296 = DATE_TIME_ROLE ( 'classification_date' ) ;
#297 = DIRECTION ( 'NONE',  ( -3.491481338843133355E-15, 1.224646799147353207E-16, -1.000000000000000000 ) ) ;
#298 =( GEOMETRIC_REPRESENTATION_CONTEXT ( 3 ) GLOBAL_UNCERTAINTY_ASSIGNED_CONTEXT ( ( #26 ) ) GLOBAL_UNIT_ASSIGNED_CONTEXT ( ( #275, #106, #341 ) ) REPRESENTATION_CONTEXT ( 'NONE', 'WORKASPACE' ) );
#299 = VERTEX_POINT ( 'NONE', #248 ) ;
#300 = APPROVAL_DATE_TIME ( #118, #147 ) ;
#301 = ORIENTED_EDGE ( 'NONE', *, *, #133, .T. ) ;
#302 = CC_DESIGN_PERSON_AND_ORGANIZATION_ASSIGNMENT ( #112, #38, ( #3 ) ) ;
#303 = EDGE_LOOP ( 'NONE', ( #252 ) ) ;
#304 = CARTESIAN_POINT ( 'NONE',  ( 2.789689482689513687E-14, -9.784913519608648506E-16, 7.989988236952308753 ) ) ;
#305 = AXIS2_PLACEMENT_3D ( 'NONE', #202, #120, #67 ) ;
#306 = AXIS2_PLACEMENT_3D ( 'NONE', #130, #163, #322 ) ;
#307 = DIRECTION ( 'NONE',  ( 0.0000000000000000000, 1.000000000000000000, 0.0000000000000000000 ) ) ;
#308 = FACE_OUTER_BOUND ( 'NONE', #154, .T. ) ;
#309 = EDGE_LOOP ( 'NONE', ( #131 ) ) ;
#310 = DIRECTION ( 'NONE',  ( 0.0000000000000000000, 1.000000000000000000, 0.0000000000000000000 ) ) ;
#311 = EDGE_CURVE ( 'NONE', #109, #109, #11, .T. ) ;
#312 = FACE_OUTER_BOUND ( 'NONE', #13, .T. ) ;
#313 = AXIS2_PLACEMENT_3D ( 'NONE', #333, #216, #84 ) ;
#314 = PRODUCT_DEFINITION_FORMATION_WITH_SPECIFIED_SOURCE ( 'ANY', '', #176, .NOT_KNOWN. ) ;
#315 = DIRECTION ( 'NONE',  ( 0.0000000000000000000, -1.000000000000000000, 0.0000000000000000000 ) ) ;
#316 = DIRECTION ( 'NONE',  ( -4.275831445896958607E-31, -1.000000000000000000, -1.224646799147353207E-16 ) ) ;
#317 = EDGE_LOOP ( 'NONE', ( #332 ) ) ;
#318 = CC_DESIGN_PERSON_AND_ORGANIZATION_ASSIGNMENT ( #221, #193, ( #25 ) ) ;
#319 = CARTESIAN_POINT ( 'NONE',  ( 3.316907271900976056E-14, 1.959999999999998632, 9.500000000000000000 ) ) ;
#320 = CARTESIAN_POINT ( 'NONE',  ( 1.047444401652940007E-14, 0.5625273371958182667, 3.000000000000000000 ) ) ;
#321 = CALENDAR_DATE ( 2021, 13, 12 ) ;
#322 = DIRECTION ( 'NONE',  ( 0.0000000000000000000, 1.000000000000000000, 0.0000000000000000000 ) ) ;
#323 = DATE_AND_TIME ( #291, #331 ) ;
#324 = CARTESIAN_POINT ( 'NONE',  ( 5.237222008264700033E-15, 0.4999999999999996669, 1.500000000000000000 ) ) ;
#325 = AXIS2_PLACEMENT_3D ( 'NONE', #304, #14, #46 ) ;
#326 = CIRCLE ( 'NONE', #23, 0.5000000000000000000 ) ;
#327 = DIRECTION ( 'NONE',  ( -3.491481338843133355E-15, 1.224646799147353207E-16, -1.000000000000000000 ) ) ;
#328 = DIRECTION ( 'NONE',  ( -3.491481338843133355E-15, 1.224646799147353207E-16, -1.000000000000000000 ) ) ;
#329 = CC_DESIGN_DATE_AND_TIME_ASSIGNMENT ( #323, #296, ( #25 ) ) ;
#330 = EDGE_LOOP ( 'NONE', ( #66 ) ) ;
#331 = LOCAL_TIME ( 14, 56, 3.000000000000000000, #293 ) ;
#332 = ORIENTED_EDGE ( 'NONE', *, *, #151, .F. ) ;
#333 = CARTESIAN_POINT ( 'NONE',  ( 8.728703347107831810E-15, -4.336808689942017736E-16, 2.499999999999999556 ) ) ;
#334 = EDGE_LOOP ( 'NONE', ( #85 ) ) ;
#335 = AXIS2_PLACEMENT_3D ( 'NONE', #229, #18, #279 ) ;
#336 = AXIS2_PLACEMENT_3D ( 'NONE', #292, #266, #78 ) ;
#337 = APPLICATION_CONTEXT ( 'configuration controlled 3d designs of mechanical parts and assemblies' ) ;
#338 = EDGE_LOOP ( 'NONE', ( #99 ) ) ;
#339 = CARTESIAN_POINT ( 'NONE',  ( 1.326762908760390423E-13, -4.653657836759941941E-15, 38.00000000000000000 ) ) ;
#340 = DIRECTION ( 'NONE',  ( 0.0000000000000000000, 1.000000000000000000, 0.0000000000000000000 ) ) ;
#341 =( NAMED_UNIT ( * ) SI_UNIT ( $, .STERADIAN. ) SOLID_ANGLE_UNIT ( ) );
#342 = DIRECTION ( 'NONE',  ( 4.275831445896957731E-31, 1.000000000000000000, 1.224646799147353207E-16 ) ) ;
#343 = ORIENTED_EDGE ( 'NONE', *, *, #172, .F. ) ;
ENDSEC;
END-ISO-10303-21;
