ISO-10303-21;
HEADER;
FILE_DESCRIPTION (( 'STEP AP203' ),
    '1' );
FILE_NAME ('381934.step',
    '2021-12-13T13:56:02',
    ( '' ),
    ( '' ),
    'SwSTEP 2.0',
    'SolidWorks 2019',
    '' );
FILE_SCHEMA (( 'CONFIG_CONTROL_DESIGN' ));
ENDSEC;

DATA;
#1 = VERTEX_POINT ( 'NONE', #186 ) ;
#2 = CC_DESIGN_PERSON_AND_ORGANIZATION_ASSIGNMENT ( #129, #126, ( #178 ) ) ;
#3 = EDGE_LOOP ( 'NONE', ( #268 ) ) ;
#4 = PLANE ( 'NONE',  #200 ) ;
#5 = AXIS2_PLACEMENT_3D ( 'NONE', #56, #154, #263 ) ;
#6 = PERSON_AND_ORGANIZATION_ROLE ( 'creator' ) ;
#7 = APPROVAL_PERSON_ORGANIZATION ( #63, #70, #239 ) ;
#8 = ORIENTED_EDGE ( 'NONE', *, *, #256, .T. ) ;
#9 = EDGE_CURVE ( 'NONE', #73, #73, #96, .T. ) ;
#10 = ORIENTED_EDGE ( 'NONE', *, *, #142, .T. ) ;
#11 = DIRECTION ( 'NONE',  ( -4.275831445896958607E-31, -1.000000000000000000, -1.224646799147353207E-16 ) ) ;
#12 = CARTESIAN_POINT ( 'NONE',  ( 0.0000000000000000000, 0.0000000000000000000, 0.0000000000000000000 ) ) ;
#13 = PLANE ( 'NONE',  #78 ) ;
#14 = CIRCLE ( 'NONE', #99, 0.8350000000000000755 ) ;
#15 = FACE_BOUND ( 'NONE', #285, .T. ) ;
#16 = DIRECTION ( 'NONE',  ( 3.930469274259665087E-31, 1.000000000000000000, 1.106328747434188221E-16 ) ) ;
#17 = EDGE_LOOP ( 'NONE', ( #76 ) ) ;
#18 = VERTEX_POINT ( 'NONE', #134 ) ;
#19 = EDGE_LOOP ( 'NONE', ( #111 ) ) ;
#20 = AXIS2_PLACEMENT_3D ( 'NONE', #41, #49, #68 ) ;
#21 = DIRECTION ( 'NONE',  ( -3.491481338843133355E-15, 1.227056696963693029E-16, -1.000000000000000000 ) ) ;
#22 = APPLICATION_CONTEXT ( 'configuration controlled 3d designs of mechanical parts and assemblies' ) ;
#23 = EDGE_CURVE ( 'NONE', #135, #135, #14, .T. ) ;
#24 = APPROVAL_ROLE ( '' ) ;
#25 = APPROVAL_DATE_TIME ( #205, #303 ) ;
#26 = VERTEX_POINT ( 'NONE', #251 ) ;
#27 = AXIS2_PLACEMENT_3D ( 'NONE', #127, #272, #74 ) ;
#28 = MANIFOLD_SOLID_BREP ( 'Corps-Déplacer/Copier3[1]', #64 ) ;
#29 = EDGE_CURVE ( 'NONE', #230, #230, #270, .T. ) ;
#30 = APPLICATION_CONTEXT ( 'configuration controlled 3d designs of mechanical parts and assemblies' ) ;
#31 = FACE_OUTER_BOUND ( 'NONE', #214, .T. ) ;
#32 = ORIENTED_EDGE ( 'NONE', *, *, #231, .T. ) ;
#33 = AXIS2_PLACEMENT_3D ( 'NONE', #59, #143, #235 ) ;
#34 = CARTESIAN_POINT ( 'NONE',  ( -8.552029054412912320E-32, 2.999647997881647411E-33, -2.449398471436922997E-17 ) ) ;
#35 = COORDINATED_UNIVERSAL_TIME_OFFSET ( 1, 0, .AHEAD. ) ;
#36 = DIRECTION ( 'NONE',  ( 3.851859888774478275E-31, 1.000000000000000000, 1.084202172485506283E-16 ) ) ;
#37 = PERSON_AND_ORGANIZATION_ROLE ( 'creator' ) ;
#38 = CARTESIAN_POINT ( 'NONE',  ( 0.0000000000000000000, 0.0000000000000000000, 0.0000000000000000000 ) ) ;
#39 = DATE_TIME_ROLE ( 'creation_date' ) ;
#40 = AXIS2_PLACEMENT_3D ( 'NONE', #299, #265, #220 ) ;
#41 = CARTESIAN_POINT ( 'NONE',  ( 4.888073874380386697E-15, -1.714505518806294391E-16, 1.399999999999999911 ) ) ;
#42 = AXIS2_PLACEMENT_3D ( 'NONE', #180, #77, #254 ) ;
#43 = ADVANCED_FACE ( 'NONE', ( #45, #132 ), #109, .T. ) ;
#44 = PERSON_AND_ORGANIZATION ( #95, #206 ) ;
#45 = FACE_OUTER_BOUND ( 'NONE', #234, .T. ) ;
#46 = DATE_AND_TIME ( #116, #258 ) ;
#47 = CARTESIAN_POINT ( 'NONE',  ( 4.888073874380386697E-15, -1.626303258728256651E-16, 1.399999999999999911 ) ) ;
#48 = VERTEX_POINT ( 'NONE', #93 ) ;
#49 = DIRECTION ( 'NONE',  ( -3.491481338843133355E-15, 1.224646799147353207E-16, -1.000000000000000000 ) ) ;
#50 = AXIS2_PLACEMENT_3D ( 'NONE', #105, #269, #252 ) ;
#51 = DIRECTION ( 'NONE',  ( 4.284245559151227911E-31, 1.000000000000000000, 1.227056696963693029E-16 ) ) ;
#52 = AXIS2_PLACEMENT_3D ( 'NONE', #244, #100, #36 ) ;
#53 = APPROVAL ( #104, 'UNSPECIFIED' ) ;
#54 = EDGE_CURVE ( 'NONE', #112, #112, #147, .T. ) ;
#55 = EDGE_LOOP ( 'NONE', ( #298 ) ) ;
#56 = CARTESIAN_POINT ( 'NONE',  ( 4.888073874380386697E-15, -1.626303258728256651E-16, 1.399999999999999911 ) ) ;
#57 = AXIS2_PLACEMENT_3D ( 'NONE', #158, #224, #217 ) ;
#58 = EDGE_LOOP ( 'NONE', ( #192 ) ) ;
#59 = CARTESIAN_POINT ( 'NONE',  ( 1.326762908760390423E-13, -4.653657836759941941E-15, 38.00000000000000000 ) ) ;
#60 = APPLICATION_PROTOCOL_DEFINITION ( 'international standard', 'config_control_design', 1994, #22 ) ;
#61 = ADVANCED_BREP_SHAPE_REPRESENTATION ( '381934', ( #28, #102, #139 ), #81 ) ;
#62 = CC_DESIGN_PERSON_AND_ORGANIZATION_ASSIGNMENT ( #179, #91, ( #229 ) ) ;
#63 = PERSON_AND_ORGANIZATION ( #95, #206 ) ;
#64 = CLOSED_SHELL ( 'NONE', ( #264, #171, #43, #301, #221, #136, #238, #284, #207 ) ) ;
#65 = PERSON_AND_ORGANIZATION ( #95, #206 ) ;
#66 = CIRCLE ( 'NONE', #167, 1.959999999999999520 ) ;
#67 = FACE_OUTER_BOUND ( 'NONE', #3, .T. ) ;
#68 = DIRECTION ( 'NONE',  ( 0.0000000000000000000, 1.000000000000000000, 0.0000000000000000000 ) ) ;
#69 = CALENDAR_DATE ( 2021, 13, 12 ) ;
#70 = APPROVAL ( #146, 'UNSPECIFIED' ) ;
#71 = CARTESIAN_POINT ( 'NONE',  ( 1.047444401652940007E-14, -3.589593973870165597E-16, 3.000000000000000000 ) ) ;
#72 = ORIENTED_EDGE ( 'NONE', *, *, #23, .F. ) ;
#73 = VERTEX_POINT ( 'NONE', #75 ) ;
#74 = DIRECTION ( 'NONE',  ( -4.275831445896958607E-31, -1.000000000000000000, -1.224646799147353207E-16 ) ) ;
#75 = CARTESIAN_POINT ( 'NONE',  ( 4.888073874380386697E-15, 0.4499999999999997891, 1.399999999999999911 ) ) ;
#76 = ORIENTED_EDGE ( 'NONE', *, *, #101, .F. ) ;
#77 = DIRECTION ( 'NONE',  ( -3.491481338843133355E-15, 1.227056696963693029E-16, -1.000000000000000000 ) ) ;
#78 = AXIS2_PLACEMENT_3D ( 'NONE', #107, #292, #168 ) ;
#79 = FACE_OUTER_BOUND ( 'NONE', #103, .T. ) ;
#80 = AXIS2_PLACEMENT_3D ( 'NONE', #34, #216, #11 ) ;
#81 =( GEOMETRIC_REPRESENTATION_CONTEXT ( 3 ) GLOBAL_UNCERTAINTY_ASSIGNED_CONTEXT ( ( #208 ) ) GLOBAL_UNIT_ASSIGNED_CONTEXT ( ( #293, #215, #287 ) ) REPRESENTATION_CONTEXT ( 'NONE', 'WORKASPACE' ) );
#82 = VERTEX_POINT ( 'NONE', #232 ) ;
#83 = DATE_AND_TIME ( #156, #97 ) ;
#84 = DIRECTION ( 'NONE',  ( 0.0000000000000000000, 1.000000000000000000, 0.0000000000000000000 ) ) ;
#85 = EDGE_LOOP ( 'NONE', ( #253 ) ) ;
#86 = DIRECTION ( 'NONE',  ( 1.000000000000000000, 0.0000000000000000000, 0.0000000000000000000 ) ) ;
#87 = EDGE_LOOP ( 'NONE', ( #10 ) ) ;
#88 = AXIS2_PLACEMENT_3D ( 'NONE', #283, #125, #218 ) ;
#89 = DIRECTION ( 'NONE',  ( -3.491481338843133355E-15, 1.224646799147353207E-16, -1.000000000000000000 ) ) ;
#90 = DIRECTION ( 'NONE',  ( 3.491481338843133355E-15, -1.227056696963693029E-16, 1.000000000000000000 ) ) ;
#91 = PERSON_AND_ORGANIZATION_ROLE ( 'classification_officer' ) ;
#92 = COORDINATED_UNIVERSAL_TIME_OFFSET ( 1, 0, .AHEAD. ) ;
#93 = CARTESIAN_POINT ( 'NONE',  ( 1.312796983405018142E-13, 1.999999999999991784, 37.59999999999999432 ) ) ;
#94 = CARTESIAN_POINT ( 'NONE',  ( 3.316907271900976056E-14, -1.156546250413416869E-15, 9.500000000000000000 ) ) ;
#95 = PERSON ( 'UNSPECIFIED', 'UNSPECIFIED', 'UNSPECIFIED', ('UNSPECIFIED'), ('UNSPECIFIED'), ('UNSPECIFIED') ) ;
#96 = CIRCLE ( 'NONE', #20, 0.4499999999999999556 ) ;
#97 = LOCAL_TIME ( 14, 56, 2.000000000000000000, #191 ) ;
#98 = ORIENTED_EDGE ( 'NONE', *, *, #23, .T. ) ;
#99 = AXIS2_PLACEMENT_3D ( 'NONE', #71, #183, #296 ) ;
#100 = DIRECTION ( 'NONE',  ( -3.491481338843133355E-15, 1.227056696963693029E-16, -1.000000000000000000 ) ) ;
#101 = EDGE_CURVE ( 'NONE', #48, #48, #247, .T. ) ;
#102 = MANIFOLD_SOLID_BREP ( 'Corps-Déplacer/Copier3[2]', #177 ) ;
#103 = EDGE_LOOP ( 'NONE', ( #237 ) ) ;
#104 = APPROVAL_STATUS ( 'not_yet_approved' ) ;
#105 = CARTESIAN_POINT ( 'NONE',  ( 1.312796983405018142E-13, -4.604575568881394032E-15, 37.59999999999999432 ) ) ;
#106 = ADVANCED_FACE ( 'NONE', ( #225, #199 ), #153, .T. ) ;
#107 = CARTESIAN_POINT ( 'NONE',  ( 1.326762908760390423E-13, -4.653657836759941941E-15, 38.00000000000000000 ) ) ;
#108 = CARTESIAN_POINT ( 'NONE',  ( 1.047444401652940007E-14, -3.589593973870165597E-16, 3.000000000000000000 ) ) ;
#109 = CYLINDRICAL_SURFACE ( 'NONE', #138, 1.959999999999999964 ) ;
#110 = ADVANCED_FACE ( 'NONE', ( #181 ), #275, .T. ) ;
#111 = ORIENTED_EDGE ( 'NONE', *, *, #29, .F. ) ;
#112 = VERTEX_POINT ( 'NONE', #204 ) ;
#113 = APPROVAL_PERSON_ORGANIZATION ( #65, #53, #245 ) ;
#114 = DIRECTION ( 'NONE',  ( -3.491481338843133355E-15, 1.227056696963693029E-16, -1.000000000000000000 ) ) ;
#115 = DIRECTION ( 'NONE',  ( -3.491481338843133355E-15, 1.227056696963693029E-16, -1.000000000000000000 ) ) ;
#116 = CALENDAR_DATE ( 2021, 13, 12 ) ;
#117 = PLANE ( 'NONE',  #42 ) ;
#118 = SHAPE_DEFINITION_REPRESENTATION ( #273, #61 ) ;
#119 = VERTEX_POINT ( 'NONE', #227 ) ;
#120 = CONICAL_SURFACE ( 'NONE', #188, 0.8349999999999999645, 0.2217440814658727666 ) ;
#121 = APPROVAL_PERSON_ORGANIZATION ( #44, #303, #24 ) ;
#122 = EDGE_LOOP ( 'NONE', ( #157 ) ) ;
#123 = EDGE_LOOP ( 'NONE', ( #170 ) ) ;
#124 = APPROVAL_DATE_TIME ( #172, #70 ) ;
#125 = DIRECTION ( 'NONE',  ( -3.491481338843133355E-15, 1.227056696963693029E-16, -1.000000000000000000 ) ) ;
#126 = PERSON_AND_ORGANIZATION_ROLE ( 'design_supplier' ) ;
#127 = CARTESIAN_POINT ( 'NONE',  ( 4.888073874380386697E-15, 3.374459510989177565E-33, 1.399999999999999911 ) ) ;
#128 = CONICAL_SURFACE ( 'NONE', #166, 1.999999999999997113, 0.7853981633974433940 ) ;
#129 = PERSON_AND_ORGANIZATION ( #95, #206 ) ;
#130 = LOCAL_TIME ( 14, 56, 2.000000000000000000, #260 ) ;
#131 = DIRECTION ( 'NONE',  ( -3.491481338843133355E-15, 1.227056696963693029E-16, -1.000000000000000000 ) ) ;
#132 = FACE_OUTER_BOUND ( 'NONE', #189, .T. ) ;
#133 = FACE_OUTER_BOUND ( 'NONE', #17, .T. ) ;
#134 = CARTESIAN_POINT ( 'NONE',  ( 1.326762908760390423E-13, 1.599999999999992095, 38.00000000000000000 ) ) ;
#135 = VERTEX_POINT ( 'NONE', #159 ) ;
#136 = ADVANCED_FACE ( 'NONE', ( #174, #133 ), #128, .T. ) ;
#137 = FACE_BOUND ( 'NONE', #85, .T. ) ;
#138 = AXIS2_PLACEMENT_3D ( 'NONE', #47, #131, #16 ) ;
#139 = AXIS2_PLACEMENT_3D ( 'NONE', #12, #236, #86 ) ;
#140 = EDGE_LOOP ( 'NONE', ( #32 ) ) ;
#141 = EDGE_LOOP ( 'NONE', ( #209 ) ) ;
#142 = EDGE_CURVE ( 'NONE', #26, #26, #257, .T. ) ;
#143 = DIRECTION ( 'NONE',  ( -3.491481338843133355E-15, 1.227056696963693029E-16, -1.000000000000000000 ) ) ;
#144 = DATE_AND_TIME ( #69, #130 ) ;
#145 = EDGE_LOOP ( 'NONE', ( #282 ) ) ;
#146 = APPROVAL_STATUS ( 'not_yet_approved' ) ;
#147 = CIRCLE ( 'NONE', #173, 0.4499999999999999556 ) ;
#148 = PLANE ( 'NONE',  #80 ) ;
#149 = AXIS2_PLACEMENT_3D ( 'NONE', #277, #274, #51 ) ;
#150 = CC_DESIGN_DATE_AND_TIME_ASSIGNMENT ( #46, #302, ( #229 ) ) ;
#151 = ORIENTED_EDGE ( 'NONE', *, *, #278, .F. ) ;
#152 = CYLINDRICAL_SURFACE ( 'NONE', #52, 1.999999999999996669 ) ;
#153 = CYLINDRICAL_SURFACE ( 'NONE', #222, 0.4499999999999999001 ) ;
#154 = DIRECTION ( 'NONE',  ( -3.491481338843133355E-15, 1.227056696963693029E-16, -1.000000000000000000 ) ) ;
#155 = CYLINDRICAL_SURFACE ( 'NONE', #5, 0.4500000000000000111 ) ;
#156 = CALENDAR_DATE ( 2021, 13, 12 ) ;
#157 = ORIENTED_EDGE ( 'NONE', *, *, #9, .F. ) ;
#158 = CARTESIAN_POINT ( 'NONE',  ( 1.047444401652940007E-14, -3.589593973870165597E-16, 3.000000000000000000 ) ) ;
#159 = CARTESIAN_POINT ( 'NONE',  ( 1.047444401652940007E-14, 0.8349999999999997424, 3.000000000000000000 ) ) ;
#160 = EDGE_LOOP ( 'NONE', ( #8 ) ) ;
#161 = EDGE_LOOP ( 'NONE', ( #246 ) ) ;
#162 = CARTESIAN_POINT ( 'NONE',  ( 2.789689482689513687E-14, -9.712592457792546177E-16, 7.989988236952308753 ) ) ;
#163 = DIRECTION ( 'NONE',  ( 0.0000000000000000000, 1.000000000000000000, 0.0000000000000000000 ) ) ;
#164 = PRODUCT_DEFINITION ( 'UNKNOWN', '', #178, #288 ) ;
#165 = CC_DESIGN_PERSON_AND_ORGANIZATION_ASSIGNMENT ( #267, #196, ( #250 ) ) ;
#166 = AXIS2_PLACEMENT_3D ( 'NONE', #228, #114, #201 ) ;
#167 = AXIS2_PLACEMENT_3D ( 'NONE', #94, #115, #279 ) ;
#168 = DIRECTION ( 'NONE',  ( -4.284245559151227911E-31, -1.000000000000000000, -1.227056696963693029E-16 ) ) ;
#169 = APPLICATION_PROTOCOL_DEFINITION ( 'international standard', 'config_control_design', 1994, #30 ) ;
#170 = ORIENTED_EDGE ( 'NONE', *, *, #142, .F. ) ;
#171 = ADVANCED_FACE ( 'NONE', ( #290, #15 ), #120, .T. ) ;
#172 = DATE_AND_TIME ( #289, #233 ) ;
#173 = AXIS2_PLACEMENT_3D ( 'NONE', #249, #176, #84 ) ;
#174 = FACE_BOUND ( 'NONE', #160, .T. ) ;
#175 = FACE_OUTER_BOUND ( 'NONE', #243, .T. ) ;
#176 = DIRECTION ( 'NONE',  ( -3.491481338843133355E-15, 1.227056696963693029E-16, -1.000000000000000000 ) ) ;
#177 = CLOSED_SHELL ( 'NONE', ( #211, #106, #110 ) ) ;
#178 = PRODUCT_DEFINITION_FORMATION_WITH_SPECIFIED_SOURCE ( 'ANY', '', #250, .NOT_KNOWN. ) ;
#179 = PERSON_AND_ORGANIZATION ( #95, #206 ) ;
#180 = CARTESIAN_POINT ( 'NONE',  ( 3.316907271900976056E-14, 1.999999999999995337, 9.500000000000000000 ) ) ;
#181 = FACE_OUTER_BOUND ( 'NONE', #122, .T. ) ;
#182 = DIRECTION ( 'NONE',  ( 4.284245559151227911E-31, 1.000000000000000000, 1.227056696963693029E-16 ) ) ;
#183 = DIRECTION ( 'NONE',  ( -3.491481338843133355E-15, 1.227056696963693029E-16, -1.000000000000000000 ) ) ;
#184 = APPROVAL_STATUS ( 'not_yet_approved' ) ;
#185 = CARTESIAN_POINT ( 'NONE',  ( 1.047444401652940007E-14, 0.4499999999999997335, 3.000000000000000000 ) ) ;
#186 = CARTESIAN_POINT ( 'NONE',  ( 2.789689482689513687E-14, 1.959999999999998632, 7.989988236952308753 ) ) ;
#187 = PRODUCT_RELATED_PRODUCT_CATEGORY ( 'detail', '', ( #250 ) ) ;
#188 = AXIS2_PLACEMENT_3D ( 'NONE', #108, #90, #195 ) ;
#189 = EDGE_LOOP ( 'NONE', ( #151 ) ) ;
#190 = CARTESIAN_POINT ( 'NONE',  ( 1.047444401652940007E-14, 0.8349999999999996314, 3.000000000000000000 ) ) ;
#191 = COORDINATED_UNIVERSAL_TIME_OFFSET ( 1, 0, .AHEAD. ) ;
#192 = ORIENTED_EDGE ( 'NONE', *, *, #101, .T. ) ;
#193 = DIRECTION ( 'NONE',  ( 4.275831445896958607E-31, 1.000000000000000000, 1.224646799147353207E-16 ) ) ;
#194 = CIRCLE ( 'NONE', #271, 1.959999999999999520 ) ;
#195 = DIRECTION ( 'NONE',  ( 0.0000000000000000000, -1.000000000000000000, 0.0000000000000000000 ) ) ;
#196 = PERSON_AND_ORGANIZATION_ROLE ( 'design_owner' ) ;
#197 = ORIENTED_EDGE ( 'NONE', *, *, #54, .F. ) ;
#198 = CALENDAR_DATE ( 2021, 13, 12 ) ;
#199 = FACE_OUTER_BOUND ( 'NONE', #161, .T. ) ;
#200 = AXIS2_PLACEMENT_3D ( 'NONE', #190, #286, #182 ) ;
#201 = DIRECTION ( 'NONE',  ( 0.0000000000000000000, 1.000000000000000000, 0.0000000000000000000 ) ) ;
#202 = CC_DESIGN_PERSON_AND_ORGANIZATION_ASSIGNMENT ( #242, #37, ( #178 ) ) ;
#203 = FACE_OUTER_BOUND ( 'NONE', #145, .T. ) ;
#204 = CARTESIAN_POINT ( 'NONE',  ( 4.888073874380386697E-15, 0.4499999999999997891, 1.399999999999999911 ) ) ;
#205 = DATE_AND_TIME ( #198, #262 ) ;
#206 = ORGANIZATION ( 'UNSPECIFIED', 'UNSPECIFIED', '' ) ;
#207 = ADVANCED_FACE ( 'NONE', ( #294, #175 ), #155, .T. ) ;
#208 = UNCERTAINTY_MEASURE_WITH_UNIT (LENGTH_MEASURE( 1.000000000000000082E-05 ), #293, 'distance_accuracy_value', 'NONE');
#209 = ORIENTED_EDGE ( 'NONE', *, *, #278, .T. ) ;
#210 = FACE_BOUND ( 'NONE', #19, .T. ) ;
#211 = ADVANCED_FACE ( 'NONE', ( #241 ), #148, .F. ) ;
#212 = APPROVAL_DATE_TIME ( #144, #53 ) ;
#213 = CIRCLE ( 'NONE', #88, 1.999999999999996225 ) ;
#214 = EDGE_LOOP ( 'NONE', ( #98 ) ) ;
#215 =( NAMED_UNIT ( * ) PLANE_ANGLE_UNIT ( ) SI_UNIT ( $, .RADIAN. ) );
#216 = DIRECTION ( 'NONE',  ( 3.491481338843133355E-15, -1.224646799147353207E-16, 1.000000000000000000 ) ) ;
#217 = DIRECTION ( 'NONE',  ( 0.0000000000000000000, 1.000000000000000000, 0.0000000000000000000 ) ) ;
#218 = DIRECTION ( 'NONE',  ( 0.0000000000000000000, 1.000000000000000000, 0.0000000000000000000 ) ) ;
#219 = SECURITY_CLASSIFICATION_LEVEL ( 'unclassified' ) ;
#220 = DIRECTION ( 'NONE',  ( 4.275831445896958607E-31, 1.000000000000000000, 1.224646799147353207E-16 ) ) ;
#221 = ADVANCED_FACE ( 'NONE', ( #266, #67 ), #152, .T. ) ;
#222 = AXIS2_PLACEMENT_3D ( 'NONE', #38, #89, #193 ) ;
#223 = MECHANICAL_CONTEXT ( 'NONE', #22, 'mechanical' ) ;
#224 = DIRECTION ( 'NONE',  ( -3.491481338843133355E-15, 1.227056696963693029E-16, -1.000000000000000000 ) ) ;
#225 = FACE_OUTER_BOUND ( 'NONE', #123, .T. ) ;
#226 = CC_DESIGN_DATE_AND_TIME_ASSIGNMENT ( #83, #39, ( #164 ) ) ;
#227 = CARTESIAN_POINT ( 'NONE',  ( 3.316907271900976056E-14, 1.999999999999994893, 9.500000000000000000 ) ) ;
#228 = CARTESIAN_POINT ( 'NONE',  ( 1.312796983405018142E-13, -4.604575568881394032E-15, 37.59999999999999432 ) ) ;
#229 = SECURITY_CLASSIFICATION ( '', '', #219 ) ;
#230 = VERTEX_POINT ( 'NONE', #185 ) ;
#231 = EDGE_CURVE ( 'NONE', #119, #119, #213, .T. ) ;
#232 = CARTESIAN_POINT ( 'NONE',  ( 3.316907271900976056E-14, 1.959999999999998188, 9.500000000000000000 ) ) ;
#233 = LOCAL_TIME ( 14, 56, 2.000000000000000000, #35 ) ;
#234 = EDGE_LOOP ( 'NONE', ( #240 ) ) ;
#235 = DIRECTION ( 'NONE',  ( 0.0000000000000000000, 1.000000000000000000, 0.0000000000000000000 ) ) ;
#236 = DIRECTION ( 'NONE',  ( 0.0000000000000000000, 0.0000000000000000000, 1.000000000000000000 ) ) ;
#237 = ORIENTED_EDGE ( 'NONE', *, *, #256, .F. ) ;
#238 = ADVANCED_FACE ( 'NONE', ( #79 ), #13, .T. ) ;
#239 = APPROVAL_ROLE ( '' ) ;
#240 = ORIENTED_EDGE ( 'NONE', *, *, #280, .T. ) ;
#241 = FACE_OUTER_BOUND ( 'NONE', #87, .T. ) ;
#242 = PERSON_AND_ORGANIZATION ( #95, #206 ) ;
#243 = EDGE_LOOP ( 'NONE', ( #197 ) ) ;
#244 = CARTESIAN_POINT ( 'NONE',  ( 4.888073874380386697E-15, -1.626303258728256651E-16, 1.399999999999999911 ) ) ;
#245 = APPROVAL_ROLE ( '' ) ;
#246 = ORIENTED_EDGE ( 'NONE', *, *, #9, .T. ) ;
#247 = CIRCLE ( 'NONE', #50, 1.999999999999996669 ) ;
#248 = CC_DESIGN_SECURITY_CLASSIFICATION ( #229, ( #178 ) ) ;
#249 = CARTESIAN_POINT ( 'NONE',  ( 4.888073874380386697E-15, -1.626303258728256651E-16, 1.399999999999999911 ) ) ;
#250 = PRODUCT ( '381934', '381934', '', ( #223 ) ) ;
#251 = CARTESIAN_POINT ( 'NONE',  ( 2.137183397710479182E-32, 0.4499999999999997891, 6.121136532892404794E-18 ) ) ;
#252 = DIRECTION ( 'NONE',  ( 0.0000000000000000000, 1.000000000000000000, 0.0000000000000000000 ) ) ;
#253 = ORIENTED_EDGE ( 'NONE', *, *, #280, .F. ) ;
#254 = DIRECTION ( 'NONE',  ( 4.284245559151227911E-31, 1.000000000000000000, 1.227056696963693029E-16 ) ) ;
#255 = CC_DESIGN_APPROVAL ( #70, ( #178 ) ) ;
#256 = EDGE_CURVE ( 'NONE', #18, #18, #261, .T. ) ;
#257 = CIRCLE ( 'NONE', #40, 0.4499999999999997891 ) ;
#258 = LOCAL_TIME ( 14, 56, 2.000000000000000000, #276 ) ;
#259 = CC_DESIGN_PERSON_AND_ORGANIZATION_ASSIGNMENT ( #295, #6, ( #164 ) ) ;
#260 = COORDINATED_UNIVERSAL_TIME_OFFSET ( 1, 0, .AHEAD. ) ;
#261 = CIRCLE ( 'NONE', #33, 1.599999999999996536 ) ;
#262 = LOCAL_TIME ( 14, 56, 2.000000000000000000, #92 ) ;
#263 = DIRECTION ( 'NONE',  ( 0.0000000000000000000, 1.000000000000000000, 0.0000000000000000000 ) ) ;
#264 = ADVANCED_FACE ( 'NONE', ( #31, #210 ), #4, .T. ) ;
#265 = DIRECTION ( 'NONE',  ( -3.491481338843133355E-15, 1.224646799147353207E-16, -1.000000000000000000 ) ) ;
#266 = FACE_OUTER_BOUND ( 'NONE', #58, .T. ) ;
#267 = PERSON_AND_ORGANIZATION ( #95, #206 ) ;
#268 = ORIENTED_EDGE ( 'NONE', *, *, #231, .F. ) ;
#269 = DIRECTION ( 'NONE',  ( -3.491481338843133355E-15, 1.227056696963693029E-16, -1.000000000000000000 ) ) ;
#270 = CIRCLE ( 'NONE', #57, 0.4500000000000001221 ) ;
#271 = AXIS2_PLACEMENT_3D ( 'NONE', #162, #21, #163 ) ;
#272 = DIRECTION ( 'NONE',  ( 3.491481338843133355E-15, -1.224646799147353207E-16, 1.000000000000000000 ) ) ;
#273 = PRODUCT_DEFINITION_SHAPE ( 'NONE', 'NONE',  #164 ) ;
#274 = DIRECTION ( 'NONE',  ( -3.491481338843133355E-15, 1.227056696963693029E-16, -1.000000000000000000 ) ) ;
#275 = PLANE ( 'NONE',  #27 ) ;
#276 = COORDINATED_UNIVERSAL_TIME_OFFSET ( 1, 0, .AHEAD. ) ;
#277 = CARTESIAN_POINT ( 'NONE',  ( 4.888073874380386697E-15, 0.4499999999999997891, 1.399999999999999911 ) ) ;
#278 = EDGE_CURVE ( 'NONE', #1, #1, #194, .T. ) ;
#279 = DIRECTION ( 'NONE',  ( 0.0000000000000000000, 1.000000000000000000, 0.0000000000000000000 ) ) ;
#280 = EDGE_CURVE ( 'NONE', #82, #82, #66, .T. ) ;
#281 = CC_DESIGN_APPROVAL ( #53, ( #164 ) ) ;
#282 = ORIENTED_EDGE ( 'NONE', *, *, #54, .T. ) ;
#283 = CARTESIAN_POINT ( 'NONE',  ( 3.316907271900976056E-14, -1.156546250413416869E-15, 9.500000000000000000 ) ) ;
#284 = ADVANCED_FACE ( 'NONE', ( #203 ), #300, .T. ) ;
#285 = EDGE_LOOP ( 'NONE', ( #72 ) ) ;
#286 = DIRECTION ( 'NONE',  ( -3.491481338843133355E-15, 1.227056696963693029E-16, -1.000000000000000000 ) ) ;
#287 =( NAMED_UNIT ( * ) SI_UNIT ( $, .STERADIAN. ) SOLID_ANGLE_UNIT ( ) );
#288 = DESIGN_CONTEXT ( 'detailed design', #30, 'design' ) ;
#289 = CALENDAR_DATE ( 2021, 13, 12 ) ;
#290 = FACE_OUTER_BOUND ( 'NONE', #141, .T. ) ;
#291 = CC_DESIGN_APPROVAL ( #303, ( #229 ) ) ;
#292 = DIRECTION ( 'NONE',  ( 3.491481338843133355E-15, -1.227056696963693029E-16, 1.000000000000000000 ) ) ;
#293 =( LENGTH_UNIT ( ) NAMED_UNIT ( * ) SI_UNIT ( .MILLI., .METRE. ) );
#294 = FACE_OUTER_BOUND ( 'NONE', #55, .T. ) ;
#295 = PERSON_AND_ORGANIZATION ( #95, #206 ) ;
#296 = DIRECTION ( 'NONE',  ( 0.0000000000000000000, 1.000000000000000000, 0.0000000000000000000 ) ) ;
#297 = FACE_OUTER_BOUND ( 'NONE', #140, .T. ) ;
#298 = ORIENTED_EDGE ( 'NONE', *, *, #29, .T. ) ;
#299 = CARTESIAN_POINT ( 'NONE',  ( -1.710405810882582464E-31, 5.999295995763294823E-33, -4.898796942873845995E-17 ) ) ;
#300 = PLANE ( 'NONE',  #149 ) ;
#301 = ADVANCED_FACE ( 'NONE', ( #297, #137 ), #117, .T. ) ;
#302 = DATE_TIME_ROLE ( 'classification_date' ) ;
#303 = APPROVAL ( #184, 'UNSPECIFIED' ) ;
ENDSEC;
END-ISO-10303-21;
