ISO-10303-21;
HEADER;
FILE_DESCRIPTION (( 'STEP AP203' ),
    '1' );
FILE_NAME ('381933.step',
    '2021-12-13T13:56:01',
    ( '' ),
    ( '' ),
    'SwSTEP 2.0',
    'SolidWorks 2019',
    '' );
FILE_SCHEMA (( 'CONFIG_CONTROL_DESIGN' ));
ENDSEC;

DATA;
#1 = FACE_BOUND ( 'NONE', #108, .T. ) ;
#2 = PRODUCT_RELATED_PRODUCT_CATEGORY ( 'detail', '', ( #83 ) ) ;
#3 = DIRECTION ( 'NONE',  ( -4.260961615894971294E-31, -1.000000000000000000, -1.220387910567151280E-16 ) ) ;
#4 = EDGE_LOOP ( 'NONE', ( #312 ) ) ;
#5 = AXIS2_PLACEMENT_3D ( 'NONE', #38, #104, #207 ) ;
#6 = LOCAL_TIME ( 14, 56, 1.000000000000000000, #78 ) ;
#7 = DIRECTION ( 'NONE',  ( 0.0000000000000000000, -1.000000000000000000, 0.0000000000000000000 ) ) ;
#8 = CALENDAR_DATE ( 2021, 13, 12 ) ;
#9 = ADVANCED_FACE ( 'NONE', ( #29, #278 ), #158, .T. ) ;
#10 = EDGE_LOOP ( 'NONE', ( #67 ) ) ;
#11 = EDGE_LOOP ( 'NONE', ( #208 ) ) ;
#12 = CARTESIAN_POINT ( 'NONE',  ( 3.316907271900976688E-14, -1.175552291643561052E-15, 9.500000000000001776 ) ) ;
#13 = ORIENTED_EDGE ( 'NONE', *, *, #180, .T. ) ;
#14 = PERSON_AND_ORGANIZATION_ROLE ( 'creator' ) ;
#15 = AXIS2_PLACEMENT_3D ( 'NONE', #59, #302, #185 ) ;
#16 = DIRECTION ( 'NONE',  ( 3.491481338843133355E-15, -1.220387910567151280E-16, 1.000000000000000000 ) ) ;
#17 = APPROVAL_ROLE ( '' ) ;
#18 = ADVANCED_BREP_SHAPE_REPRESENTATION ( '381933', ( #220, #320, #26 ), #27 ) ;
#19 = CYLINDRICAL_SURFACE ( 'NONE', #96, 1.959999999999999964 ) ;
#20 = CARTESIAN_POINT ( 'NONE',  ( 3.316907271900976688E-14, -1.175552291643561052E-15, 9.500000000000001776 ) ) ;
#21 = ORGANIZATION ( 'UNSPECIFIED', 'UNSPECIFIED', '' ) ;
#22 = CARTESIAN_POINT ( 'NONE',  ( 1.326762908760390423E-13, -1.600000000000000977, 38.00000000000000000 ) ) ;
#23 = COORDINATED_UNIVERSAL_TIME_OFFSET ( 1, 0, .AHEAD. ) ;
#24 = ADVANCED_FACE ( 'NONE', ( #132 ), #37, .F. ) ;
#25 = AXIS2_PLACEMENT_3D ( 'NONE', #206, #239, #112 ) ;
#26 = AXIS2_PLACEMENT_3D ( 'NONE', #86, #287, #266 ) ;
#27 =( GEOMETRIC_REPRESENTATION_CONTEXT ( 3 ) GLOBAL_UNCERTAINTY_ASSIGNED_CONTEXT ( ( #310 ) ) GLOBAL_UNIT_ASSIGNED_CONTEXT ( ( #162, #241, #92 ) ) REPRESENTATION_CONTEXT ( 'NONE', 'WORKASPACE' ) );
#28 = CC_DESIGN_PERSON_AND_ORGANIZATION_ASSIGNMENT ( #248, #120, ( #117 ) ) ;
#29 = FACE_OUTER_BOUND ( 'NONE', #30, .T. ) ;
#30 = EDGE_LOOP ( 'NONE', ( #88 ) ) ;
#31 = FACE_OUTER_BOUND ( 'NONE', #165, .T. ) ;
#32 = ORIENTED_EDGE ( 'NONE', *, *, #149, .T. ) ;
#33 = AXIS2_PLACEMENT_3D ( 'NONE', #250, #90, #172 ) ;
#34 = AXIS2_PLACEMENT_3D ( 'NONE', #47, #249, #311 ) ;
#35 = DATE_AND_TIME ( #118, #6 ) ;
#36 = COORDINATED_UNIVERSAL_TIME_OFFSET ( 1, 0, .AHEAD. ) ;
#37 = PLANE ( 'NONE',  #25 ) ;
#38 = CARTESIAN_POINT ( 'NONE',  ( 0.0000000000000000000, 0.0000000000000000000, 0.0000000000000000000 ) ) ;
#39 = EDGE_LOOP ( 'NONE', ( #257 ) ) ;
#40 = APPROVAL_STATUS ( 'not_yet_approved' ) ;
#41 = DIRECTION ( 'NONE',  ( 0.0000000000000000000, -1.000000000000000000, 0.0000000000000000000 ) ) ;
#42 = ORIENTED_EDGE ( 'NONE', *, *, #180, .F. ) ;
#43 = CLOSED_SHELL ( 'NONE', ( #321, #155, #74 ) ) ;
#44 = CIRCLE ( 'NONE', #184, 1.959999999999999964 ) ;
#45 = DIRECTION ( 'NONE',  ( 0.0000000000000000000, -1.000000000000000000, 0.0000000000000000000 ) ) ;
#46 = APPROVAL ( #40, 'UNSPECIFIED' ) ;
#47 = CARTESIAN_POINT ( 'NONE',  ( 2.789689482689513687E-14, -9.912722815998014520E-16, 7.989988236952308753 ) ) ;
#48 = PERSON ( 'UNSPECIFIED', 'UNSPECIFIED', 'UNSPECIFIED', ('UNSPECIFIED'), ('UNSPECIFIED'), ('UNSPECIFIED') ) ;
#49 = CARTESIAN_POINT ( 'NONE',  ( 4.189777606611759237E-15, 0.3999999999999998002, 1.199999999999999956 ) ) ;
#50 = FACE_OUTER_BOUND ( 'NONE', #263, .T. ) ;
#51 = ADVANCED_FACE ( 'NONE', ( #258, #256 ), #159, .T. ) ;
#52 = AXIS2_PLACEMENT_3D ( 'NONE', #20, #16, #41 ) ;
#53 = APPROVAL_PERSON_ORGANIZATION ( #68, #292, #17 ) ;
#54 = CC_DESIGN_PERSON_AND_ORGANIZATION_ASSIGNMENT ( #230, #198, ( #83 ) ) ;
#55 = PERSON_AND_ORGANIZATION_ROLE ( 'design_supplier' ) ;
#56 = EDGE_CURVE ( 'NONE', #271, #271, #106, .T. ) ;
#57 = CARTESIAN_POINT ( 'NONE',  ( -1.496614238587734665E-31, 5.249416104432366703E-33, -4.286473543300170131E-17 ) ) ;
#58 = CIRCLE ( 'NONE', #319, 0.4000000000000000222 ) ;
#59 = CARTESIAN_POINT ( 'NONE',  ( 1.047444401652940953E-14, -3.823001497749132258E-16, 3.000000000000002665 ) ) ;
#60 = DIRECTION ( 'NONE',  ( 3.491481338843133355E-15, -1.224646799147353207E-16, 1.000000000000000000 ) ) ;
#61 = COORDINATED_UNIVERSAL_TIME_OFFSET ( 1, 0, .AHEAD. ) ;
#62 = ORIENTED_EDGE ( 'NONE', *, *, #225, .T. ) ;
#63 = DIRECTION ( 'NONE',  ( 3.491481338843133355E-15, -1.220387910567151280E-16, 1.000000000000000000 ) ) ;
#64 = EDGE_LOOP ( 'NONE', ( #161 ) ) ;
#65 = APPLICATION_PROTOCOL_DEFINITION ( 'international standard', 'config_control_design', 1994, #77 ) ;
#66 = DIRECTION ( 'NONE',  ( -3.491481338843133355E-15, 1.220387910567151280E-16, -1.000000000000000000 ) ) ;
#67 = ORIENTED_EDGE ( 'NONE', *, *, #174, .F. ) ;
#68 = PERSON_AND_ORGANIZATION ( #48, #21 ) ;
#69 = APPROVAL ( #148, 'UNSPECIFIED' ) ;
#70 = CARTESIAN_POINT ( 'NONE',  ( 6.982962677686273021E-15, -0.4000000000000002998, 2.000000000000001776 ) ) ;
#71 = DIRECTION ( 'NONE',  ( -4.321314557720561049E-31, -1.000000000000000000, -1.220387910567151280E-16 ) ) ;
#72 = CARTESIAN_POINT ( 'NONE',  ( 1.047444401652940953E-14, -0.8350000000000001865, 3.000000000000002665 ) ) ;
#73 = DIRECTION ( 'NONE',  ( -4.275831445896958607E-31, -1.000000000000000000, -1.224646799147353207E-16 ) ) ;
#74 = ADVANCED_FACE ( 'NONE', ( #137 ), #154, .T. ) ;
#75 = CC_DESIGN_APPROVAL ( #69, ( #135 ) ) ;
#76 = VERTEX_POINT ( 'NONE', #295 ) ;
#77 = APPLICATION_CONTEXT ( 'configuration controlled 3d designs of mechanical parts and assemblies' ) ;
#78 = COORDINATED_UNIVERSAL_TIME_OFFSET ( 1, 0, .AHEAD. ) ;
#79 = DIRECTION ( 'NONE',  ( 0.0000000000000000000, -1.000000000000000000, 0.0000000000000000000 ) ) ;
#80 = CARTESIAN_POINT ( 'NONE',  ( 1.047444401652940953E-14, -3.823001497749132258E-16, 3.000000000000002665 ) ) ;
#81 = EDGE_LOOP ( 'NONE', ( #105 ) ) ;
#82 = CYLINDRICAL_SURFACE ( 'NONE', #143, 1.999999999999996669 ) ;
#83 = PRODUCT ( '381933', '381933', '', ( #215 ) ) ;
#84 = DIRECTION ( 'NONE',  ( 3.491481338843133355E-15, -1.220387910567151280E-16, 1.000000000000000000 ) ) ;
#85 = EDGE_LOOP ( 'NONE', ( #304 ) ) ;
#86 = CARTESIAN_POINT ( 'NONE',  ( 0.0000000000000000000, 0.0000000000000000000, 0.0000000000000000000 ) ) ;
#87 = CARTESIAN_POINT ( 'NONE',  ( 1.047444401652940953E-14, -3.823001497749132258E-16, 3.000000000000002665 ) ) ;
#88 = ORIENTED_EDGE ( 'NONE', *, *, #284, .F. ) ;
#89 = PERSON_AND_ORGANIZATION ( #48, #21 ) ;
#90 = DIRECTION ( 'NONE',  ( 3.491481338843133355E-15, -1.220387910567151280E-16, 1.000000000000000000 ) ) ;
#91 = EDGE_LOOP ( 'NONE', ( #113 ) ) ;
#92 =( NAMED_UNIT ( * ) SI_UNIT ( $, .STERADIAN. ) SOLID_ANGLE_UNIT ( ) );
#93 = CARTESIAN_POINT ( 'NONE',  ( 1.312796983405018142E-13, -4.604842320337255071E-15, 37.59999999999999432 ) ) ;
#94 = CARTESIAN_POINT ( 'NONE',  ( 1.312796983405018142E-13, -2.000000000000001776, 37.59999999999999432 ) ) ;
#95 = CIRCLE ( 'NONE', #52, 1.999999999999996669 ) ;
#96 = AXIS2_PLACEMENT_3D ( 'NONE', #121, #267, #317 ) ;
#97 = VERTEX_POINT ( 'NONE', #293 ) ;
#98 = ADVANCED_FACE ( 'NONE', ( #262, #264 ), #191, .F. ) ;
#99 = DIRECTION ( 'NONE',  ( 0.0000000000000000000, 1.000000000000000000, 0.0000000000000000000 ) ) ;
#100 = AXIS2_PLACEMENT_3D ( 'NONE', #119, #145, #245 ) ;
#101 = LOCAL_TIME ( 14, 56, 1.000000000000000000, #36 ) ;
#102 = DATE_AND_TIME ( #322, #290 ) ;
#103 = DIRECTION ( 'NONE',  ( 0.0000000000000000000, -1.000000000000000000, 0.0000000000000000000 ) ) ;
#104 = DIRECTION ( 'NONE',  ( -3.491481338843133355E-15, 1.224646799147353207E-16, -1.000000000000000000 ) ) ;
#105 = ORIENTED_EDGE ( 'NONE', *, *, #56, .F. ) ;
#106 = CIRCLE ( 'NONE', #125, 0.6679491924311228290 ) ;
#107 = FACE_OUTER_BOUND ( 'NONE', #307, .T. ) ;
#108 = EDGE_LOOP ( 'NONE', ( #303 ) ) ;
#109 = ADVANCED_FACE ( 'NONE', ( #107, #1 ), #214, .F. ) ;
#110 = DIRECTION ( 'NONE',  ( 4.275831445896958607E-31, 1.000000000000000000, 1.224646799147353207E-16 ) ) ;
#111 = APPROVAL_STATUS ( 'not_yet_approved' ) ;
#112 = DIRECTION ( 'NONE',  ( -4.260961615894971294E-31, -1.000000000000000000, -1.220387910567151280E-16 ) ) ;
#113 = ORIENTED_EDGE ( 'NONE', *, *, #225, .F. ) ;
#114 = CARTESIAN_POINT ( 'NONE',  ( 4.189777606611758449E-15, -1.626303258728249009E-16, 1.199999999999999734 ) ) ;
#115 = CC_DESIGN_PERSON_AND_ORGANIZATION_ASSIGNMENT ( #238, #14, ( #163 ) ) ;
#116 = ORIENTED_EDGE ( 'NONE', *, *, #228, .T. ) ;
#117 = PRODUCT_DEFINITION_FORMATION_WITH_SPECIFIED_SOURCE ( 'ANY', '', #83, .NOT_KNOWN. ) ;
#118 = CALENDAR_DATE ( 2021, 13, 12 ) ;
#119 = CARTESIAN_POINT ( 'NONE',  ( 1.326762908760390423E-13, -4.653657836759941941E-15, 38.00000000000000000 ) ) ;
#120 = PERSON_AND_ORGANIZATION_ROLE ( 'creator' ) ;
#121 = CARTESIAN_POINT ( 'NONE',  ( 1.326762908760390423E-13, -4.653657836759941941E-15, 38.00000000000000000 ) ) ;
#122 = PLANE ( 'NONE',  #100 ) ;
#123 = AXIS2_PLACEMENT_3D ( 'NONE', #182, #282, #3 ) ;
#124 = DIRECTION ( 'NONE',  ( 3.491481338843133355E-15, -1.220387910567151280E-16, 1.000000000000000000 ) ) ;
#125 = AXIS2_PLACEMENT_3D ( 'NONE', #87, #280, #103 ) ;
#126 = CONICAL_SURFACE ( 'NONE', #130, 1.999999999999997113, 0.7853981633974433940 ) ;
#127 = ADVANCED_FACE ( 'NONE', ( #187, #31 ), #82, .T. ) ;
#128 = VERTEX_POINT ( 'NONE', #179 ) ;
#129 = APPLICATION_PROTOCOL_DEFINITION ( 'international standard', 'config_control_design', 1994, #153 ) ;
#130 = AXIS2_PLACEMENT_3D ( 'NONE', #93, #66, #99 ) ;
#131 = ORIENTED_EDGE ( 'NONE', *, *, #228, .F. ) ;
#132 = FACE_OUTER_BOUND ( 'NONE', #265, .T. ) ;
#133 = DATE_TIME_ROLE ( 'classification_date' ) ;
#134 = CARTESIAN_POINT ( 'NONE',  ( 6.982962677686273021E-15, -2.602613587181977280E-16, 2.000000000000001776 ) ) ;
#135 = SECURITY_CLASSIFICATION ( '', '', #157 ) ;
#136 = EDGE_CURVE ( 'NONE', #288, #288, #58, .T. ) ;
#137 = FACE_OUTER_BOUND ( 'NONE', #91, .T. ) ;
#138 = CARTESIAN_POINT ( 'NONE',  ( 1.326762908760390423E-13, -4.653657836759941941E-15, 38.00000000000000000 ) ) ;
#139 = EDGE_LOOP ( 'NONE', ( #268 ) ) ;
#140 = APPROVAL_ROLE ( '' ) ;
#141 = FACE_OUTER_BOUND ( 'NONE', #247, .T. ) ;
#142 = EDGE_LOOP ( 'NONE', ( #286 ) ) ;
#143 = AXIS2_PLACEMENT_3D ( 'NONE', #283, #152, #156 ) ;
#144 = APPROVAL_DATE_TIME ( #168, #292 ) ;
#145 = DIRECTION ( 'NONE',  ( -3.491481338843133355E-15, 1.220387910567151280E-16, -1.000000000000000000 ) ) ;
#146 = DIRECTION ( 'NONE',  ( 0.0000000000000000000, -1.000000000000000000, 0.0000000000000000000 ) ) ;
#147 = VERTEX_POINT ( 'NONE', #94 ) ;
#148 = APPROVAL_STATUS ( 'not_yet_approved' ) ;
#149 = EDGE_CURVE ( 'NONE', #97, #97, #227, .T. ) ;
#150 = CC_DESIGN_APPROVAL ( #46, ( #163 ) ) ;
#151 = AXIS2_PLACEMENT_3D ( 'NONE', #217, #124, #71 ) ;
#152 = DIRECTION ( 'NONE',  ( 3.491481338843133355E-15, -1.220387910567151280E-16, 1.000000000000000000 ) ) ;
#153 = APPLICATION_CONTEXT ( 'configuration controlled 3d designs of mechanical parts and assemblies' ) ;
#154 = PLANE ( 'NONE',  #190 ) ;
#155 = ADVANCED_FACE ( 'NONE', ( #212, #308 ), #255, .T. ) ;
#156 = DIRECTION ( 'NONE',  ( 0.0000000000000000000, -1.000000000000000000, 0.0000000000000000000 ) ) ;
#157 = SECURITY_CLASSIFICATION_LEVEL ( 'unclassified' ) ;
#158 = CONICAL_SURFACE ( 'NONE', #15, 0.8349999999999998535, 0.2217440814658728776 ) ;
#159 = CYLINDRICAL_SURFACE ( 'NONE', #235, 0.3999999999999999667 ) ;
#160 = AXIS2_PLACEMENT_3D ( 'NONE', #269, #175, #273 ) ;
#161 = ORIENTED_EDGE ( 'NONE', *, *, #205, .F. ) ;
#162 =( LENGTH_UNIT ( ) NAMED_UNIT ( * ) SI_UNIT ( .MILLI., .METRE. ) );
#163 = PRODUCT_DEFINITION ( 'UNKNOWN', '', #117, #189 ) ;
#164 = DIRECTION ( 'NONE',  ( -3.491481338843133355E-15, 1.224646799147353207E-16, -1.000000000000000000 ) ) ;
#165 = EDGE_LOOP ( 'NONE', ( #13 ) ) ;
#166 = CARTESIAN_POINT ( 'NONE',  ( 1.047444401652940953E-14, -0.6679491924311232731, 3.000000000000002665 ) ) ;
#167 = ORIENTED_EDGE ( 'NONE', *, *, #136, .T. ) ;
#168 = DATE_AND_TIME ( #8, #236 ) ;
#169 = VERTEX_POINT ( 'NONE', #72 ) ;
#170 = CLOSED_SHELL ( 'NONE', ( #51, #276, #98, #9, #297, #109, #127, #318, #259, #24 ) ) ;
#171 = AXIS2_PLACEMENT_3D ( 'NONE', #224, #199, #242 ) ;
#172 = DIRECTION ( 'NONE',  ( 0.0000000000000000000, -1.000000000000000000, 0.0000000000000000000 ) ) ;
#173 = CARTESIAN_POINT ( 'NONE',  ( 3.316907271900976688E-14, -1.999999999999997780, 9.500000000000001776 ) ) ;
#174 = EDGE_CURVE ( 'NONE', #169, #169, #289, .T. ) ;
#175 = DIRECTION ( 'NONE',  ( 3.491481338843133355E-15, -1.220387910567151280E-16, 1.000000000000000000 ) ) ;
#176 = SHAPE_DEFINITION_REPRESENTATION ( #300, #18 ) ;
#177 = CIRCLE ( 'NONE', #33, 1.999999999999997113 ) ;
#178 = LOCAL_TIME ( 14, 56, 1.000000000000000000, #23 ) ;
#179 = CARTESIAN_POINT ( 'NONE',  ( 2.789689482689513687E-14, -1.960000000000000853, 7.989988236952308753 ) ) ;
#180 = EDGE_CURVE ( 'NONE', #314, #314, #95, .T. ) ;
#181 = DATE_TIME_ROLE ( 'creation_date' ) ;
#182 = CARTESIAN_POINT ( 'NONE',  ( 1.047444401652940007E-14, 0.6679491924311223849, 3.000000000000000000 ) ) ;
#183 = CC_DESIGN_PERSON_AND_ORGANIZATION_ASSIGNMENT ( #260, #309, ( #135 ) ) ;
#184 = AXIS2_PLACEMENT_3D ( 'NONE', #12, #221, #45 ) ;
#185 = DIRECTION ( 'NONE',  ( 0.0000000000000000000, -1.000000000000000000, 0.0000000000000000000 ) ) ;
#186 = ORIENTED_EDGE ( 'NONE', *, *, #281, .T. ) ;
#187 = FACE_OUTER_BOUND ( 'NONE', #64, .T. ) ;
#188 = DIRECTION ( 'NONE',  ( 0.0000000000000000000, -1.000000000000000000, 0.0000000000000000000 ) ) ;
#189 = DESIGN_CONTEXT ( 'detailed design', #77, 'design' ) ;
#190 = AXIS2_PLACEMENT_3D ( 'NONE', #232, #60, #237 ) ;
#191 = PLANE ( 'NONE',  #123 ) ;
#192 = AXIS2_PLACEMENT_3D ( 'NONE', #114, #216, #146 ) ;
#193 = EDGE_LOOP ( 'NONE', ( #131 ) ) ;
#194 = FACE_BOUND ( 'NONE', #193, .T. ) ;
#195 = EDGE_LOOP ( 'NONE', ( #62 ) ) ;
#196 = DATE_AND_TIME ( #279, #101 ) ;
#197 = FACE_OUTER_BOUND ( 'NONE', #306, .T. ) ;
#198 = PERSON_AND_ORGANIZATION_ROLE ( 'design_owner' ) ;
#199 = DIRECTION ( 'NONE',  ( -3.491481338843133355E-15, 1.224646799147353207E-16, -1.000000000000000000 ) ) ;
#200 = AXIS2_PLACEMENT_3D ( 'NONE', #80, #84, #188 ) ;
#201 = CALENDAR_DATE ( 2021, 13, 12 ) ;
#202 = FACE_OUTER_BOUND ( 'NONE', #4, .T. ) ;
#203 = PLANE ( 'NONE',  #270 ) ;
#204 = CC_DESIGN_DATE_AND_TIME_ASSIGNMENT ( #35, #181, ( #163 ) ) ;
#205 = EDGE_CURVE ( 'NONE', #147, #147, #177, .T. ) ;
#206 = CARTESIAN_POINT ( 'NONE',  ( 4.189777606611759237E-15, 0.3999999999999998002, 1.199999999999999956 ) ) ;
#207 = DIRECTION ( 'NONE',  ( 4.275831445896958607E-31, 1.000000000000000000, 1.224646799147353207E-16 ) ) ;
#208 = ORIENTED_EDGE ( 'NONE', *, *, #149, .F. ) ;
#209 = APPROVAL_PERSON_ORGANIZATION ( #213, #46, #140 ) ;
#210 = DIRECTION ( 'NONE',  ( 3.491481338843133355E-15, -1.220387910567151280E-16, 1.000000000000000000 ) ) ;
#211 = EDGE_LOOP ( 'NONE', ( #186 ) ) ;
#212 = FACE_OUTER_BOUND ( 'NONE', #11, .T. ) ;
#213 = PERSON_AND_ORGANIZATION ( #48, #21 ) ;
#214 = PLANE ( 'NONE',  #305 ) ;
#215 = MECHANICAL_CONTEXT ( 'NONE', #153, 'mechanical' ) ;
#216 = DIRECTION ( 'NONE',  ( 3.491481338843133355E-15, -1.220387910567151280E-16, 1.000000000000000000 ) ) ;
#217 = CARTESIAN_POINT ( 'NONE',  ( 6.982962677686266711E-15, -4.336808689942017736E-16, 2.000000000000000000 ) ) ;
#218 = PERSON_AND_ORGANIZATION ( #48, #21 ) ;
#219 = CARTESIAN_POINT ( 'NONE',  ( -7.483071192938673325E-32, 2.624708052216183351E-33, -2.143236771650085065E-17 ) ) ;
#220 = MANIFOLD_SOLID_BREP ( 'Corps-Déplacer/Copier4[1]', #170 ) ;
#221 = DIRECTION ( 'NONE',  ( 3.491481338843133355E-15, -1.220387910567151280E-16, 1.000000000000000000 ) ) ;
#222 = CIRCLE ( 'NONE', #171, 0.3999999999999999667 ) ;
#223 = CIRCLE ( 'NONE', #34, 1.959999999999999964 ) ;
#224 = CARTESIAN_POINT ( 'NONE',  ( 4.189777606611759237E-15, -1.469576158976823553E-16, 1.199999999999999956 ) ) ;
#225 = EDGE_CURVE ( 'NONE', #272, #272, #222, .T. ) ;
#226 = APPROVAL_DATE_TIME ( #251, #69 ) ;
#227 = CIRCLE ( 'NONE', #298, 0.3999999999999998002 ) ;
#228 = EDGE_CURVE ( 'NONE', #252, #252, #274, .T. ) ;
#229 = TOROIDAL_SURFACE ( 'NONE', #151, 2.400000000000000355, 2.000000000000000000 ) ;
#230 = PERSON_AND_ORGANIZATION ( #48, #21 ) ;
#231 = EDGE_CURVE ( 'NONE', #275, #275, #44, .T. ) ;
#232 = CARTESIAN_POINT ( 'NONE',  ( 4.189777606611759237E-15, 2.999519565323712479E-33, 1.199999999999999956 ) ) ;
#233 = CARTESIAN_POINT ( 'NONE',  ( 3.316907271900976056E-14, 1.999999999999995337, 9.500000000000000000 ) ) ;
#234 = EDGE_LOOP ( 'NONE', ( #243 ) ) ;
#235 = AXIS2_PLACEMENT_3D ( 'NONE', #138, #323, #79 ) ;
#236 = LOCAL_TIME ( 14, 56, 1.000000000000000000, #61 ) ;
#237 = DIRECTION ( 'NONE',  ( -4.275831445896958607E-31, -1.000000000000000000, -1.224646799147353207E-16 ) ) ;
#238 = PERSON_AND_ORGANIZATION ( #48, #21 ) ;
#239 = DIRECTION ( 'NONE',  ( 3.491481338843133355E-15, -1.220387910567151280E-16, 1.000000000000000000 ) ) ;
#240 = ORIENTED_EDGE ( 'NONE', *, *, #281, .F. ) ;
#241 =( NAMED_UNIT ( * ) PLANE_ANGLE_UNIT ( ) SI_UNIT ( $, .RADIAN. ) );
#242 = DIRECTION ( 'NONE',  ( 0.0000000000000000000, 1.000000000000000000, 0.0000000000000000000 ) ) ;
#243 = ORIENTED_EDGE ( 'NONE', *, *, #231, .F. ) ;
#244 = COORDINATED_UNIVERSAL_TIME_OFFSET ( 1, 0, .AHEAD. ) ;
#245 = DIRECTION ( 'NONE',  ( 4.260961615894971294E-31, 1.000000000000000000, 1.220387910567151280E-16 ) ) ;
#246 = CC_DESIGN_DATE_AND_TIME_ASSIGNMENT ( #196, #133, ( #135 ) ) ;
#247 = EDGE_LOOP ( 'NONE', ( #116 ) ) ;
#248 = PERSON_AND_ORGANIZATION ( #48, #21 ) ;
#249 = DIRECTION ( 'NONE',  ( 3.491481338843133355E-15, -1.220387910567151280E-16, 1.000000000000000000 ) ) ;
#250 = CARTESIAN_POINT ( 'NONE',  ( 1.312796983405018142E-13, -4.604842320337255071E-15, 37.59999999999999432 ) ) ;
#251 = DATE_AND_TIME ( #201, #178 ) ;
#252 = VERTEX_POINT ( 'NONE', #22 ) ;
#253 = CC_DESIGN_APPROVAL ( #292, ( #117 ) ) ;
#254 = CARTESIAN_POINT ( 'NONE',  ( 3.316907271900976688E-14, -1.960000000000001297, 9.500000000000001776 ) ) ;
#255 = CYLINDRICAL_SURFACE ( 'NONE', #5, 0.3999999999999998557 ) ;
#256 = FACE_OUTER_BOUND ( 'NONE', #211, .T. ) ;
#257 = ORIENTED_EDGE ( 'NONE', *, *, #205, .T. ) ;
#258 = FACE_OUTER_BOUND ( 'NONE', #142, .T. ) ;
#259 = ADVANCED_FACE ( 'NONE', ( #141 ), #122, .F. ) ;
#260 = PERSON_AND_ORGANIZATION ( #48, #21 ) ;
#261 = CC_DESIGN_SECURITY_CLASSIFICATION ( #135, ( #117 ) ) ;
#262 = FACE_OUTER_BOUND ( 'NONE', #10, .T. ) ;
#263 = EDGE_LOOP ( 'NONE', ( #167 ) ) ;
#264 = FACE_BOUND ( 'NONE', #139, .T. ) ;
#265 = EDGE_LOOP ( 'NONE', ( #240 ) ) ;
#266 = DIRECTION ( 'NONE',  ( 1.000000000000000000, 0.0000000000000000000, 0.0000000000000000000 ) ) ;
#267 = DIRECTION ( 'NONE',  ( 3.491481338843133355E-15, -1.220387910567151280E-16, 1.000000000000000000 ) ) ;
#268 = ORIENTED_EDGE ( 'NONE', *, *, #56, .T. ) ;
#269 = CARTESIAN_POINT ( 'NONE',  ( 1.326762908760390423E-13, -4.653657836759941941E-15, 38.00000000000000000 ) ) ;
#270 = AXIS2_PLACEMENT_3D ( 'NONE', #219, #316, #73 ) ;
#271 = VERTEX_POINT ( 'NONE', #166 ) ;
#272 = VERTEX_POINT ( 'NONE', #49 ) ;
#273 = DIRECTION ( 'NONE',  ( 0.0000000000000000000, -1.000000000000000000, 0.0000000000000000000 ) ) ;
#274 = CIRCLE ( 'NONE', #160, 1.599999999999996314 ) ;
#275 = VERTEX_POINT ( 'NONE', #254 ) ;
#276 = ADVANCED_FACE ( 'NONE', ( #291, #50 ), #229, .F. ) ;
#277 = DIRECTION ( 'NONE',  ( -4.260961615894971294E-31, -1.000000000000000000, -1.220387910567151280E-16 ) ) ;
#278 = FACE_BOUND ( 'NONE', #85, .T. ) ;
#279 = CALENDAR_DATE ( 2021, 13, 12 ) ;
#280 = DIRECTION ( 'NONE',  ( 3.491481338843133355E-15, -1.220387910567151280E-16, 1.000000000000000000 ) ) ;
#281 = EDGE_CURVE ( 'NONE', #76, #76, #299, .T. ) ;
#282 = DIRECTION ( 'NONE',  ( 3.491481338843133355E-15, -1.220387910567151280E-16, 1.000000000000000000 ) ) ;
#283 = CARTESIAN_POINT ( 'NONE',  ( 1.326762908760390423E-13, -4.653657836759941941E-15, 38.00000000000000000 ) ) ;
#284 = EDGE_CURVE ( 'NONE', #128, #128, #223, .T. ) ;
#285 = FACE_OUTER_BOUND ( 'NONE', #39, .T. ) ;
#286 = ORIENTED_EDGE ( 'NONE', *, *, #136, .F. ) ;
#287 = DIRECTION ( 'NONE',  ( 0.0000000000000000000, 0.0000000000000000000, 1.000000000000000000 ) ) ;
#288 = VERTEX_POINT ( 'NONE', #70 ) ;
#289 = CIRCLE ( 'NONE', #200, 0.8349999999999998535 ) ;
#290 = LOCAL_TIME ( 14, 56, 1.000000000000000000, #244 ) ;
#291 = FACE_OUTER_BOUND ( 'NONE', #81, .T. ) ;
#292 = APPROVAL ( #111, 'UNSPECIFIED' ) ;
#293 = CARTESIAN_POINT ( 'NONE',  ( 2.137183397710479182E-32, 0.3999999999999998002, 6.121136532892404794E-18 ) ) ;
#294 = APPROVAL_ROLE ( '' ) ;
#295 = CARTESIAN_POINT ( 'NONE',  ( 4.189777606611758449E-15, -0.4000000000000001332, 1.199999999999999734 ) ) ;
#296 = CC_DESIGN_PERSON_AND_ORGANIZATION_ASSIGNMENT ( #218, #55, ( #117 ) ) ;
#297 = ADVANCED_FACE ( 'NONE', ( #313, #202 ), #19, .T. ) ;
#298 = AXIS2_PLACEMENT_3D ( 'NONE', #57, #164, #110 ) ;
#299 = CIRCLE ( 'NONE', #192, 0.3999999999999999667 ) ;
#300 = PRODUCT_DEFINITION_SHAPE ( 'NONE', 'NONE',  #163 ) ;
#301 = APPROVAL_DATE_TIME ( #102, #46 ) ;
#302 = DIRECTION ( 'NONE',  ( 3.491481338843133355E-15, -1.220387910567151280E-16, 1.000000000000000000 ) ) ;
#303 = ORIENTED_EDGE ( 'NONE', *, *, #231, .T. ) ;
#304 = ORIENTED_EDGE ( 'NONE', *, *, #174, .T. ) ;
#305 = AXIS2_PLACEMENT_3D ( 'NONE', #233, #210, #277 ) ;
#306 = EDGE_LOOP ( 'NONE', ( #32 ) ) ;
#307 = EDGE_LOOP ( 'NONE', ( #42 ) ) ;
#308 = FACE_OUTER_BOUND ( 'NONE', #195, .T. ) ;
#309 = PERSON_AND_ORGANIZATION_ROLE ( 'classification_officer' ) ;
#310 = UNCERTAINTY_MEASURE_WITH_UNIT (LENGTH_MEASURE( 1.000000000000000082E-05 ), #162, 'distance_accuracy_value', 'NONE');
#311 = DIRECTION ( 'NONE',  ( 0.0000000000000000000, -1.000000000000000000, 0.0000000000000000000 ) ) ;
#312 = ORIENTED_EDGE ( 'NONE', *, *, #284, .T. ) ;
#313 = FACE_OUTER_BOUND ( 'NONE', #234, .T. ) ;
#314 = VERTEX_POINT ( 'NONE', #173 ) ;
#315 = APPROVAL_PERSON_ORGANIZATION ( #89, #69, #294 ) ;
#316 = DIRECTION ( 'NONE',  ( 3.491481338843133355E-15, -1.224646799147353207E-16, 1.000000000000000000 ) ) ;
#317 = DIRECTION ( 'NONE',  ( 0.0000000000000000000, -1.000000000000000000, 0.0000000000000000000 ) ) ;
#318 = ADVANCED_FACE ( 'NONE', ( #194, #285 ), #126, .T. ) ;
#319 = AXIS2_PLACEMENT_3D ( 'NONE', #134, #63, #7 ) ;
#320 = MANIFOLD_SOLID_BREP ( 'Corps-Déplacer/Copier4[2]', #43 ) ;
#321 = ADVANCED_FACE ( 'NONE', ( #197 ), #203, .F. ) ;
#322 = CALENDAR_DATE ( 2021, 13, 12 ) ;
#323 = DIRECTION ( 'NONE',  ( 3.491481338843133355E-15, -1.220387910567151280E-16, 1.000000000000000000 ) ) ;
ENDSEC;
END-ISO-10303-21;
