ISO-10303-21;
HEADER;
FILE_DESCRIPTION (( 'STEP AP203' ),
    '1' );
FILE_NAME ('381932.step',
    '2021-12-13T13:56:00',
    ( '' ),
    ( '' ),
    'SwSTEP 2.0',
    'SolidWorks 2019',
    '' );
FILE_SCHEMA (( 'CONFIG_CONTROL_DESIGN' ));
ENDSEC;

DATA;
#1 = DIRECTION ( 'NONE',  ( 0.0000000000000000000, -1.000000000000000000, 0.0000000000000000000 ) ) ;
#2 = DIRECTION ( 'NONE',  ( 3.491481338843133355E-15, -1.231771712604713183E-16, 1.000000000000000000 ) ) ;
#3 = DIRECTION ( 'NONE',  ( 3.491481338843133355E-15, -1.231771712604713183E-16, 1.000000000000000000 ) ) ;
#4 = CONICAL_SURFACE ( 'NONE', #263, 0.8349999999999997424, 0.2217440814658728776 ) ;
#5 = FACE_BOUND ( 'NONE', #295, .T. ) ;
#6 = CC_DESIGN_PERSON_AND_ORGANIZATION_ASSIGNMENT ( #314, #40, ( #176 ) ) ;
#7 = VERTEX_POINT ( 'NONE', #84 ) ;
#8 = AXIS2_PLACEMENT_3D ( 'NONE', #175, #242, #168 ) ;
#9 = APPLICATION_PROTOCOL_DEFINITION ( 'international standard', 'config_control_design', 1994, #316 ) ;
#10 = CC_DESIGN_PERSON_AND_ORGANIZATION_ASSIGNMENT ( #270, #319, ( #320 ) ) ;
#11 = ORIENTED_EDGE ( 'NONE', *, *, #83, .F. ) ;
#12 = EDGE_CURVE ( 'NONE', #209, #209, #198, .T. ) ;
#13 = CONICAL_SURFACE ( 'NONE', #315, 1.999999999999997113, 0.7853981633974433940 ) ;
#14 = CARTESIAN_POINT ( 'NONE',  ( 3.281992458512545354E-14, -1.960000000000000409, 9.399999999999998579 ) ) ;
#15 = EDGE_LOOP ( 'NONE', ( #197 ) ) ;
#16 = ORIENTED_EDGE ( 'NONE', *, *, #89, .F. ) ;
#17 = APPROVAL ( #65, 'UNSPECIFIED' ) ;
#18 = DIRECTION ( 'NONE',  ( 0.0000000000000000000, -1.000000000000000000, 0.0000000000000000000 ) ) ;
#19 = CALENDAR_DATE ( 2021, 13, 12 ) ;
#20 = ADVANCED_FACE ( 'NONE', ( #68 ), #66, .F. ) ;
#21 = DIRECTION ( 'NONE',  ( 0.0000000000000000000, -1.000000000000000000, 0.0000000000000000000 ) ) ;
#22 = CIRCLE ( 'NONE', #87, 0.7887505004004007336 ) ;
#23 = AXIS2_PLACEMENT_3D ( 'NONE', #63, #2, #292 ) ;
#24 = DIRECTION ( 'NONE',  ( 3.491481338843133355E-15, -1.231771712604713183E-16, 1.000000000000000000 ) ) ;
#25 = FACE_OUTER_BOUND ( 'NONE', #146, .T. ) ;
#26 = CIRCLE ( 'NONE', #195, 0.3499999999999999223 ) ;
#27 = PRODUCT ( '381932', '381932', '', ( #313 ) ) ;
#28 = FACE_OUTER_BOUND ( 'NONE', #98, .T. ) ;
#29 = AXIS2_PLACEMENT_3D ( 'NONE', #147, #170, #21 ) ;
#30 = DIRECTION ( 'NONE',  ( 3.491481338843133355E-15, -1.231771712604713183E-16, 1.000000000000000000 ) ) ;
#31 = PLANE ( 'NONE',  #317 ) ;
#32 =( LENGTH_UNIT ( ) NAMED_UNIT ( * ) SI_UNIT ( .MILLI., .METRE. ) );
#33 = DIRECTION ( 'NONE',  ( -4.361754602074799670E-31, -1.000000000000000000, -1.231771712604713183E-16 ) ) ;
#34 = CC_DESIGN_DATE_AND_TIME_ASSIGNMENT ( #51, #256, ( #301 ) ) ;
#35 = ORIENTED_EDGE ( 'NONE', *, *, #180, .F. ) ;
#36 = VERTEX_POINT ( 'NONE', #157 ) ;
#37 = ORIENTED_EDGE ( 'NONE', *, *, #180, .T. ) ;
#38 = AXIS2_PLACEMENT_3D ( 'NONE', #224, #24, #1 ) ;
#39 = COORDINATED_UNIVERSAL_TIME_OFFSET ( 1, 0, .AHEAD. ) ;
#40 = PERSON_AND_ORGANIZATION_ROLE ( 'classification_officer' ) ;
#41 = ORIENTED_EDGE ( 'NONE', *, *, #196, .F. ) ;
#42 = ORIENTED_EDGE ( 'NONE', *, *, #74, .T. ) ;
#43 = ORIENTED_EDGE ( 'NONE', *, *, #106, .T. ) ;
#44 = AXIS2_PLACEMENT_3D ( 'NONE', #229, #277, #47 ) ;
#45 = DIRECTION ( 'NONE',  ( -3.491481338843133355E-15, 1.231771712604713183E-16, -1.000000000000000000 ) ) ;
#46 = FACE_OUTER_BOUND ( 'NONE', #70, .T. ) ;
#47 = DIRECTION ( 'NONE',  ( 4.275831445896958607E-31, 1.000000000000000000, 1.224646799147353207E-16 ) ) ;
#48 = DIRECTION ( 'NONE',  ( 3.491481338843133355E-15, -1.231771712604713183E-16, 1.000000000000000000 ) ) ;
#49 = CARTESIAN_POINT ( 'NONE',  ( 1.326762908760390423E-13, -4.653657836759941941E-15, 38.00000000000000000 ) ) ;
#50 = FACE_OUTER_BOUND ( 'NONE', #318, .T. ) ;
#51 = DATE_AND_TIME ( #108, #158 ) ;
#52 = DIRECTION ( 'NONE',  ( 0.0000000000000000000, -1.000000000000000000, 0.0000000000000000000 ) ) ;
#53 = APPLICATION_CONTEXT ( 'configuration controlled 3d designs of mechanical parts and assemblies' ) ;
#54 = APPROVAL_ROLE ( '' ) ;
#55 = CLOSED_SHELL ( 'NONE', ( #273, #141, #253, #173, #191, #218, #299, #237, #125, #231 ) ) ;
#56 = CARTESIAN_POINT ( 'NONE',  ( 1.047444401652940953E-14, -0.8350000000000000755, 3.000000000000002665 ) ) ;
#57 = ORIENTED_EDGE ( 'NONE', *, *, #196, .T. ) ;
#58 = VERTEX_POINT ( 'NONE', #161 ) ;
#59 = AXIS2_PLACEMENT_3D ( 'NONE', #149, #99, #278 ) ;
#60 = APPROVAL_ROLE ( '' ) ;
#61 = CARTESIAN_POINT ( 'NONE',  ( 6.110092342975484161E-15, -4.336808689942017736E-16, 1.750000000000000222 ) ) ;
#62 = APPROVAL ( #110, 'UNSPECIFIED' ) ;
#63 = CARTESIAN_POINT ( 'NONE',  ( 3.840629472727435647E-15, -1.084202172485496792E-16, 1.099999999999996758 ) ) ;
#64 = LOCAL_TIME ( 14, 56, 0.0000000000000000000, #144 ) ;
#65 = APPROVAL_STATUS ( 'not_yet_approved' ) ;
#66 = PLANE ( 'NONE',  #8 ) ;
#67 = AXIS2_PLACEMENT_3D ( 'NONE', #219, #271, #18 ) ;
#68 = FACE_OUTER_BOUND ( 'NONE', #159, .T. ) ;
#69 = DIRECTION ( 'NONE',  ( 0.0000000000000000000, -1.000000000000000000, 0.0000000000000000000 ) ) ;
#70 = EDGE_LOOP ( 'NONE', ( #185 ) ) ;
#71 = AXIS2_PLACEMENT_3D ( 'NONE', #252, #48, #130 ) ;
#72 =( GEOMETRIC_REPRESENTATION_CONTEXT ( 3 ) GLOBAL_UNCERTAINTY_ASSIGNED_CONTEXT ( ( #304 ) ) GLOBAL_UNIT_ASSIGNED_CONTEXT ( ( #32, #262, #139 ) ) REPRESENTATION_CONTEXT ( 'NONE', 'WORKASPACE' ) );
#73 = CARTESIAN_POINT ( 'NONE',  ( 1.047444401652940007E-14, 0.7887505004004004006, 3.000000000000000000 ) ) ;
#74 = EDGE_CURVE ( 'NONE', #282, #282, #234, .T. ) ;
#75 = FACE_OUTER_BOUND ( 'NONE', #214, .T. ) ;
#76 = CC_DESIGN_DATE_AND_TIME_ASSIGNMENT ( #142, #293, ( #176 ) ) ;
#77 = DIRECTION ( 'NONE',  ( 0.0000000000000000000, -1.000000000000000000, 0.0000000000000000000 ) ) ;
#78 = DIRECTION ( 'NONE',  ( 3.491481338843133355E-15, -1.231771712604713183E-16, 1.000000000000000000 ) ) ;
#79 = LOCAL_TIME ( 14, 56, 0.0000000000000000000, #210 ) ;
#80 = CARTESIAN_POINT ( 'NONE',  ( 1.047444401652940953E-14, -3.424568426434458989E-16, 3.000000000000002665 ) ) ;
#81 = CARTESIAN_POINT ( 'NONE',  ( 3.840629472727435647E-15, -0.3500000000000000333, 1.099999999999996758 ) ) ;
#82 = DIRECTION ( 'NONE',  ( 1.000000000000000000, 0.0000000000000000000, 0.0000000000000000000 ) ) ;
#83 = EDGE_CURVE ( 'NONE', #259, #259, #171, .T. ) ;
#84 = CARTESIAN_POINT ( 'NONE',  ( 2.789689482689513687E-14, -1.960000000000000409, 7.989988236952308753 ) ) ;
#85 = AXIS2_PLACEMENT_3D ( 'NONE', #206, #78, #305 ) ;
#86 = CC_DESIGN_PERSON_AND_ORGANIZATION_ASSIGNMENT ( #285, #188, ( #301 ) ) ;
#87 = AXIS2_PLACEMENT_3D ( 'NONE', #80, #3, #203 ) ;
#88 = PERSON_AND_ORGANIZATION_ROLE ( 'design_owner' ) ;
#89 = EDGE_CURVE ( 'NONE', #36, #36, #212, .T. ) ;
#90 = PERSON_AND_ORGANIZATION ( #258, #310 ) ;
#91 = ORIENTED_EDGE ( 'NONE', *, *, #265, .T. ) ;
#92 = AXIS2_PLACEMENT_3D ( 'NONE', #248, #124, #145 ) ;
#93 = EDGE_LOOP ( 'NONE', ( #41 ) ) ;
#94 = MANIFOLD_SOLID_BREP ( 'Corps-Déplacer/Copier4[2]', #223 ) ;
#95 = SECURITY_CLASSIFICATION_LEVEL ( 'unclassified' ) ;
#96 = ORIENTED_EDGE ( 'NONE', *, *, #12, .T. ) ;
#97 = AXIS2_PLACEMENT_3D ( 'NONE', #200, #30, #105 ) ;
#98 = EDGE_LOOP ( 'NONE', ( #96 ) ) ;
#99 = DIRECTION ( 'NONE',  ( 3.491481338843133355E-15, -1.231771712604713183E-16, 1.000000000000000000 ) ) ;
#100 = FACE_OUTER_BOUND ( 'NONE', #260, .T. ) ;
#101 = PLANE ( 'NONE',  #97 ) ;
#102 = DIRECTION ( 'NONE',  ( 3.491481338843133355E-15, -1.231771712604713183E-16, 1.000000000000000000 ) ) ;
#103 = CARTESIAN_POINT ( 'NONE',  ( 3.840629472727447480E-15, -1.347111479062088503E-16, 1.100000000000000089 ) ) ;
#104 = DIRECTION ( 'NONE',  ( -4.275831445896958607E-31, -1.000000000000000000, -1.224646799147353207E-16 ) ) ;
#105 = DIRECTION ( 'NONE',  ( -4.300707948274202904E-31, -1.000000000000000000, -1.231771712604713183E-16 ) ) ;
#106 = EDGE_CURVE ( 'NONE', #232, #232, #254, .T. ) ;
#107 = DIRECTION ( 'NONE',  ( -3.491481338843133355E-15, 1.231771712604713183E-16, -1.000000000000000000 ) ) ;
#108 = CALENDAR_DATE ( 2021, 13, 12 ) ;
#109 = ADVANCED_BREP_SHAPE_REPRESENTATION ( '381932', ( #311, #94, #117 ), #72 ) ;
#110 = APPROVAL_STATUS ( 'not_yet_approved' ) ;
#111 = PERSON_AND_ORGANIZATION ( #258, #310 ) ;
#112 = PRODUCT_RELATED_PRODUCT_CATEGORY ( 'detail', '', ( #27 ) ) ;
#113 = ORIENTED_EDGE ( 'NONE', *, *, #279, .T. ) ;
#114 = CARTESIAN_POINT ( 'NONE',  ( 0.0000000000000000000, 0.0000000000000000000, 0.0000000000000000000 ) ) ;
#115 = APPLICATION_PROTOCOL_DEFINITION ( 'international standard', 'config_control_design', 1994, #53 ) ;
#116 = AXIS2_PLACEMENT_3D ( 'NONE', #269, #119, #245 ) ;
#117 = AXIS2_PLACEMENT_3D ( 'NONE', #114, #235, #82 ) ;
#118 = ORIENTED_EDGE ( 'NONE', *, *, #268, .F. ) ;
#119 = DIRECTION ( 'NONE',  ( -3.491481338843133355E-15, 1.224646799147353207E-16, -1.000000000000000000 ) ) ;
#120 = CC_DESIGN_PERSON_AND_ORGANIZATION_ASSIGNMENT ( #216, #166, ( #320 ) ) ;
#121 = DATE_AND_TIME ( #244, #289 ) ;
#122 = FACE_OUTER_BOUND ( 'NONE', #236, .T. ) ;
#123 = CIRCLE ( 'NONE', #71, 1.959999999999999076 ) ;
#124 = DIRECTION ( 'NONE',  ( 3.491481338843133355E-15, -1.231771712604713183E-16, 1.000000000000000000 ) ) ;
#125 = ADVANCED_FACE ( 'NONE', ( #122 ), #127, .F. ) ;
#126 = DIRECTION ( 'NONE',  ( 0.0000000000000000000, -1.000000000000000000, 0.0000000000000000000 ) ) ;
#127 = PLANE ( 'NONE',  #296 ) ;
#128 = CARTESIAN_POINT ( 'NONE',  ( 1.312796983405018142E-13, -4.604386968255752427E-15, 37.59999999999999432 ) ) ;
#129 = DIRECTION ( 'NONE',  ( 3.491481338843133355E-15, -1.231771712604713183E-16, 1.000000000000000000 ) ) ;
#130 = DIRECTION ( 'NONE',  ( 0.0000000000000000000, -1.000000000000000000, 0.0000000000000000000 ) ) ;
#131 = PLANE ( 'NONE',  #247 ) ;
#132 = CARTESIAN_POINT ( 'NONE',  ( 1.047444401652940953E-14, -3.424568426434458989E-16, 3.000000000000002665 ) ) ;
#133 = PERSON_AND_ORGANIZATION ( #258, #310 ) ;
#134 = CIRCLE ( 'NONE', #59, 0.3499999999999998113 ) ;
#135 = CYLINDRICAL_SURFACE ( 'NONE', #140, 1.959999999999999076 ) ;
#136 = CARTESIAN_POINT ( 'NONE',  ( 1.047444401652940953E-14, -0.7887505004004010667, 3.000000000000002665 ) ) ;
#137 = AXIS2_PLACEMENT_3D ( 'NONE', #61, #102, #33 ) ;
#138 = EDGE_LOOP ( 'NONE', ( #297 ) ) ;
#139 =( NAMED_UNIT ( * ) SI_UNIT ( $, .STERADIAN. ) SOLID_ANGLE_UNIT ( ) );
#140 = AXIS2_PLACEMENT_3D ( 'NONE', #201, #150, #126 ) ;
#141 = ADVANCED_FACE ( 'NONE', ( #323, #100 ), #275, .F. ) ;
#142 = DATE_AND_TIME ( #19, #220 ) ;
#143 = APPROVAL_DATE_TIME ( #172, #62 ) ;
#144 = COORDINATED_UNIVERSAL_TIME_OFFSET ( 1, 0, .AHEAD. ) ;
#145 = DIRECTION ( 'NONE',  ( 0.0000000000000000000, -1.000000000000000000, 0.0000000000000000000 ) ) ;
#146 = EDGE_LOOP ( 'NONE', ( #192 ) ) ;
#147 = CARTESIAN_POINT ( 'NONE',  ( 3.281992458512545354E-14, -1.130790738710461744E-15, 9.399999999999998579 ) ) ;
#148 = CC_DESIGN_SECURITY_CLASSIFICATION ( #176, ( #320 ) ) ;
#149 = CARTESIAN_POINT ( 'NONE',  ( 6.110092342975488894E-15, -1.884853785678570715E-16, 1.750000000000001554 ) ) ;
#150 = DIRECTION ( 'NONE',  ( 3.491481338843133355E-15, -1.231771712604713183E-16, 1.000000000000000000 ) ) ;
#151 = FACE_BOUND ( 'NONE', #264, .T. ) ;
#152 = ADVANCED_FACE ( 'NONE', ( #290 ), #31, .T. ) ;
#153 = CC_DESIGN_APPROVAL ( #17, ( #176 ) ) ;
#154 = DIRECTION ( 'NONE',  ( -4.300707948274202904E-31, -1.000000000000000000, -1.231771712604713183E-16 ) ) ;
#155 = DIRECTION ( 'NONE',  ( 3.491481338843133355E-15, -1.231771712604713183E-16, 1.000000000000000000 ) ) ;
#156 = VERTEX_POINT ( 'NONE', #136 ) ;
#157 = CARTESIAN_POINT ( 'NONE',  ( 1.326762908760390423E-13, -1.600000000000000977, 38.00000000000000000 ) ) ;
#158 = LOCAL_TIME ( 14, 56, 0.0000000000000000000, #39 ) ;
#159 = EDGE_LOOP ( 'NONE', ( #43 ) ) ;
#160 = EDGE_LOOP ( 'NONE', ( #286 ) ) ;
#161 = CARTESIAN_POINT ( 'NONE',  ( 3.840629472727447480E-15, 0.3499999999999998113, 1.100000000000000089 ) ) ;
#162 = ORIENTED_EDGE ( 'NONE', *, *, #268, .T. ) ;
#163 = CARTESIAN_POINT ( 'NONE',  ( 3.281992458512545354E-14, -1.999999999999994893, 9.399999999999998579 ) ) ;
#164 = APPROVAL_PERSON_ORGANIZATION ( #90, #17, #60 ) ;
#165 = APPROVAL_DATE_TIME ( #121, #17 ) ;
#166 = PERSON_AND_ORGANIZATION_ROLE ( 'creator' ) ;
#167 = CALENDAR_DATE ( 2021, 13, 12 ) ;
#168 = DIRECTION ( 'NONE',  ( -4.275831445896958607E-31, -1.000000000000000000, -1.224646799147353207E-16 ) ) ;
#169 = COORDINATED_UNIVERSAL_TIME_OFFSET ( 1, 0, .AHEAD. ) ;
#170 = DIRECTION ( 'NONE',  ( 3.491481338843133355E-15, -1.231771712604713183E-16, 1.000000000000000000 ) ) ;
#171 = CIRCLE ( 'NONE', #29, 1.999999999999993561 ) ;
#172 = DATE_AND_TIME ( #167, #64 ) ;
#173 = ADVANCED_FACE ( 'NONE', ( #233, #281 ), #4, .T. ) ;
#174 = EDGE_LOOP ( 'NONE', ( #11 ) ) ;
#175 = CARTESIAN_POINT ( 'NONE',  ( -6.414113331464434330E-32, 2.249768106550718950E-33, -1.837075071863246825E-17 ) ) ;
#176 = SECURITY_CLASSIFICATION ( '', '', #95 ) ;
#177 = DIRECTION ( 'NONE',  ( -3.491481338843133355E-15, 1.224646799147353207E-16, -1.000000000000000000 ) ) ;
#178 = CARTESIAN_POINT ( 'NONE',  ( 3.840629472727447480E-15, 2.624579619658249103E-33, 1.100000000000000089 ) ) ;
#179 = CYLINDRICAL_SURFACE ( 'NONE', #44, 0.3499999999999998668 ) ;
#180 = EDGE_CURVE ( 'NONE', #156, #156, #22, .T. ) ;
#181 = DESIGN_CONTEXT ( 'detailed design', #316, 'design' ) ;
#182 = FACE_OUTER_BOUND ( 'NONE', #138, .T. ) ;
#183 = APPROVAL_DATE_TIME ( #186, #221 ) ;
#184 = CIRCLE ( 'NONE', #85, 1.999999999999997113 ) ;
#185 = ORIENTED_EDGE ( 'NONE', *, *, #291, .T. ) ;
#186 = DATE_AND_TIME ( #312, #79 ) ;
#187 = EDGE_LOOP ( 'NONE', ( #243 ) ) ;
#188 = PERSON_AND_ORGANIZATION_ROLE ( 'creator' ) ;
#189 = APPROVAL_PERSON_ORGANIZATION ( #308, #221, #54 ) ;
#190 = DIRECTION ( 'NONE',  ( 4.300707948274202904E-31, 1.000000000000000000, 1.231771712604713183E-16 ) ) ;
#191 = ADVANCED_FACE ( 'NONE', ( #205, #50 ), #135, .T. ) ;
#192 = ORIENTED_EDGE ( 'NONE', *, *, #12, .F. ) ;
#193 = COORDINATED_UNIVERSAL_TIME_OFFSET ( 1, 0, .AHEAD. ) ;
#194 = ORIENTED_EDGE ( 'NONE', *, *, #106, .F. ) ;
#195 = AXIS2_PLACEMENT_3D ( 'NONE', #103, #177, #274 ) ;
#196 = EDGE_CURVE ( 'NONE', #7, #7, #207, .T. ) ;
#197 = ORIENTED_EDGE ( 'NONE', *, *, #279, .F. ) ;
#198 = CIRCLE ( 'NONE', #23, 0.3499999999999999223 ) ;
#199 = FACE_OUTER_BOUND ( 'NONE', #238, .T. ) ;
#200 = CARTESIAN_POINT ( 'NONE',  ( 3.281992458512545354E-14, 1.999999999999992228, 9.400000000000000355 ) ) ;
#201 = CARTESIAN_POINT ( 'NONE',  ( 1.326762908760390423E-13, -4.653657836759941941E-15, 38.00000000000000000 ) ) ;
#202 = CARTESIAN_POINT ( 'NONE',  ( 1.326762908760390423E-13, -4.653657836759941941E-15, 38.00000000000000000 ) ) ;
#203 = DIRECTION ( 'NONE',  ( 0.0000000000000000000, -1.000000000000000000, 0.0000000000000000000 ) ) ;
#204 = FACE_OUTER_BOUND ( 'NONE', #174, .T. ) ;
#205 = FACE_OUTER_BOUND ( 'NONE', #15, .T. ) ;
#206 = CARTESIAN_POINT ( 'NONE',  ( 1.312796983405018142E-13, -4.604386968255752427E-15, 37.59999999999999432 ) ) ;
#207 = CIRCLE ( 'NONE', #38, 1.959999999999999520 ) ;
#208 = CARTESIAN_POINT ( 'NONE',  ( 2.137183397710479182E-32, 0.3499999999999998113, 6.121136532892404794E-18 ) ) ;
#209 = VERTEX_POINT ( 'NONE', #81 ) ;
#210 = COORDINATED_UNIVERSAL_TIME_OFFSET ( 1, 0, .AHEAD. ) ;
#211 = APPROVAL_PERSON_ORGANIZATION ( #133, #62, #213 ) ;
#212 = CIRCLE ( 'NONE', #92, 1.599999999999996314 ) ;
#213 = APPROVAL_ROLE ( '' ) ;
#214 = EDGE_LOOP ( 'NONE', ( #91 ) ) ;
#215 = ORIENTED_EDGE ( 'NONE', *, *, #265, .F. ) ;
#216 = PERSON_AND_ORGANIZATION ( #258, #310 ) ;
#217 = EDGE_LOOP ( 'NONE', ( #16 ) ) ;
#218 = ADVANCED_FACE ( 'NONE', ( #204, #5 ), #101, .F. ) ;
#219 = CARTESIAN_POINT ( 'NONE',  ( 1.047444401652940953E-14, -3.424568426434458989E-16, 3.000000000000002665 ) ) ;
#220 = LOCAL_TIME ( 14, 56, 0.0000000000000000000, #193 ) ;
#221 = APPROVAL ( #287, 'UNSPECIFIED' ) ;
#222 = CARTESIAN_POINT ( 'NONE',  ( 1.326762908760390423E-13, -4.653657836759941941E-15, 38.00000000000000000 ) ) ;
#223 = CLOSED_SHELL ( 'NONE', ( #20, #288, #152 ) ) ;
#224 = CARTESIAN_POINT ( 'NONE',  ( 2.789689482689513687E-14, -9.571094782942580760E-16, 7.989988236952308753 ) ) ;
#225 = EDGE_LOOP ( 'NONE', ( #35 ) ) ;
#226 = FACE_OUTER_BOUND ( 'NONE', #187, .T. ) ;
#227 = AXIS2_PLACEMENT_3D ( 'NONE', #202, #250, #77 ) ;
#228 = FACE_BOUND ( 'NONE', #217, .T. ) ;
#229 = CARTESIAN_POINT ( 'NONE',  ( 0.0000000000000000000, 0.0000000000000000000, 0.0000000000000000000 ) ) ;
#230 = VERTEX_POINT ( 'NONE', #261 ) ;
#231 = ADVANCED_FACE ( 'NONE', ( #25 ), #131, .F. ) ;
#232 = VERTEX_POINT ( 'NONE', #208 ) ;
#233 = FACE_OUTER_BOUND ( 'NONE', #93, .T. ) ;
#234 = CIRCLE ( 'NONE', #67, 0.8349999999999997424 ) ;
#235 = DIRECTION ( 'NONE',  ( 0.0000000000000000000, 0.0000000000000000000, 1.000000000000000000 ) ) ;
#236 = EDGE_LOOP ( 'NONE', ( #246 ) ) ;
#237 = ADVANCED_FACE ( 'NONE', ( #228, #46 ), #13, .T. ) ;
#238 = EDGE_LOOP ( 'NONE', ( #118 ) ) ;
#239 = CARTESIAN_POINT ( 'NONE',  ( 1.312796983405018142E-13, -2.000000000000001776, 37.59999999999999432 ) ) ;
#240 = SHAPE_DEFINITION_REPRESENTATION ( #251, #109 ) ;
#241 = AXIS2_PLACEMENT_3D ( 'NONE', #73, #272, #154 ) ;
#242 = DIRECTION ( 'NONE',  ( 3.491481338843133355E-15, -1.224646799147353207E-16, 1.000000000000000000 ) ) ;
#243 = ORIENTED_EDGE ( 'NONE', *, *, #74, .F. ) ;
#244 = CALENDAR_DATE ( 2021, 13, 12 ) ;
#245 = DIRECTION ( 'NONE',  ( 4.275831445896958607E-31, 1.000000000000000000, 1.224646799147353207E-16 ) ) ;
#246 = ORIENTED_EDGE ( 'NONE', *, *, #89, .T. ) ;
#247 = AXIS2_PLACEMENT_3D ( 'NONE', #300, #129, #255 ) ;
#248 = CARTESIAN_POINT ( 'NONE',  ( 1.326762908760390423E-13, -4.653657836759941941E-15, 38.00000000000000000 ) ) ;
#249 = CYLINDRICAL_SURFACE ( 'NONE', #227, 0.3499999999999998113 ) ;
#250 = DIRECTION ( 'NONE',  ( 3.491481338843133355E-15, -1.231771712604713183E-16, 1.000000000000000000 ) ) ;
#251 = PRODUCT_DEFINITION_SHAPE ( 'NONE', 'NONE',  #301 ) ;
#252 = CARTESIAN_POINT ( 'NONE',  ( 3.281992458512545354E-14, -1.130790738710461744E-15, 9.399999999999998579 ) ) ;
#253 = ADVANCED_FACE ( 'NONE', ( #226, #151 ), #322, .F. ) ;
#254 = CIRCLE ( 'NONE', #116, 0.3499999999999998113 ) ;
#255 = DIRECTION ( 'NONE',  ( -4.300707948274202904E-31, -1.000000000000000000, -1.231771712604713183E-16 ) ) ;
#256 = DATE_TIME_ROLE ( 'creation_date' ) ;
#257 = VERTEX_POINT ( 'NONE', #14 ) ;
#258 = PERSON ( 'UNSPECIFIED', 'UNSPECIFIED', 'UNSPECIFIED', ('UNSPECIFIED'), ('UNSPECIFIED'), ('UNSPECIFIED') ) ;
#259 = VERTEX_POINT ( 'NONE', #163 ) ;
#260 = EDGE_LOOP ( 'NONE', ( #162 ) ) ;
#261 = CARTESIAN_POINT ( 'NONE',  ( 6.110092342975488894E-15, -0.3499999999999999778, 1.750000000000001554 ) ) ;
#262 =( NAMED_UNIT ( * ) PLANE_ANGLE_UNIT ( ) SI_UNIT ( $, .RADIAN. ) );
#263 = AXIS2_PLACEMENT_3D ( 'NONE', #132, #283, #52 ) ;
#264 = EDGE_LOOP ( 'NONE', ( #37 ) ) ;
#265 = EDGE_CURVE ( 'NONE', #58, #58, #26, .T. ) ;
#266 = AXIS2_PLACEMENT_3D ( 'NONE', #49, #155, #69 ) ;
#267 = EDGE_LOOP ( 'NONE', ( #42 ) ) ;
#268 = EDGE_CURVE ( 'NONE', #230, #230, #134, .T. ) ;
#269 = CARTESIAN_POINT ( 'NONE',  ( -1.282822666292886866E-31, 4.499536213101437899E-33, -3.674150143726493650E-17 ) ) ;
#270 = PERSON_AND_ORGANIZATION ( #258, #310 ) ;
#271 = DIRECTION ( 'NONE',  ( 3.491481338843133355E-15, -1.231771712604713183E-16, 1.000000000000000000 ) ) ;
#272 = DIRECTION ( 'NONE',  ( 3.491481338843133355E-15, -1.231771712604713183E-16, 1.000000000000000000 ) ) ;
#273 = ADVANCED_FACE ( 'NONE', ( #199, #28 ), #249, .T. ) ;
#274 = DIRECTION ( 'NONE',  ( 0.0000000000000000000, 1.000000000000000000, 0.0000000000000000000 ) ) ;
#275 = TOROIDAL_SURFACE ( 'NONE', #137, 2.350000000000000089, 2.000000000000000000 ) ;
#276 = CC_DESIGN_PERSON_AND_ORGANIZATION_ASSIGNMENT ( #111, #88, ( #27 ) ) ;
#277 = DIRECTION ( 'NONE',  ( -3.491481338843133355E-15, 1.224646799147353207E-16, -1.000000000000000000 ) ) ;
#278 = DIRECTION ( 'NONE',  ( 0.0000000000000000000, -1.000000000000000000, 0.0000000000000000000 ) ) ;
#279 = EDGE_CURVE ( 'NONE', #257, #257, #123, .T. ) ;
#280 = CYLINDRICAL_SURFACE ( 'NONE', #266, 1.999999999999995337 ) ;
#281 = FACE_BOUND ( 'NONE', #267, .T. ) ;
#282 = VERTEX_POINT ( 'NONE', #56 ) ;
#283 = DIRECTION ( 'NONE',  ( 3.491481338843133355E-15, -1.231771712604713183E-16, 1.000000000000000000 ) ) ;
#284 = VERTEX_POINT ( 'NONE', #239 ) ;
#285 = PERSON_AND_ORGANIZATION ( #258, #310 ) ;
#286 = ORIENTED_EDGE ( 'NONE', *, *, #83, .T. ) ;
#287 = APPROVAL_STATUS ( 'not_yet_approved' ) ;
#288 = ADVANCED_FACE ( 'NONE', ( #302, #75 ), #179, .T. ) ;
#289 = LOCAL_TIME ( 14, 56, 0.0000000000000000000, #169 ) ;
#290 = FACE_OUTER_BOUND ( 'NONE', #321, .T. ) ;
#291 = EDGE_CURVE ( 'NONE', #284, #284, #184, .T. ) ;
#292 = DIRECTION ( 'NONE',  ( 0.0000000000000000000, -1.000000000000000000, 0.0000000000000000000 ) ) ;
#293 = DATE_TIME_ROLE ( 'classification_date' ) ;
#294 = CC_DESIGN_APPROVAL ( #62, ( #320 ) ) ;
#295 = EDGE_LOOP ( 'NONE', ( #113 ) ) ;
#296 = AXIS2_PLACEMENT_3D ( 'NONE', #222, #45, #190 ) ;
#297 = ORIENTED_EDGE ( 'NONE', *, *, #291, .F. ) ;
#298 = FACE_OUTER_BOUND ( 'NONE', #160, .T. ) ;
#299 = ADVANCED_FACE ( 'NONE', ( #182, #298 ), #280, .T. ) ;
#300 = CARTESIAN_POINT ( 'NONE',  ( 3.840629472727447480E-15, 0.3499999999999998113, 1.100000000000000089 ) ) ;
#301 = PRODUCT_DEFINITION ( 'UNKNOWN', '', #320, #181 ) ;
#302 = FACE_OUTER_BOUND ( 'NONE', #309, .T. ) ;
#303 = DIRECTION ( 'NONE',  ( 0.0000000000000000000, 1.000000000000000000, 0.0000000000000000000 ) ) ;
#304 = UNCERTAINTY_MEASURE_WITH_UNIT (LENGTH_MEASURE( 1.000000000000000082E-05 ), #32, 'distance_accuracy_value', 'NONE');
#305 = DIRECTION ( 'NONE',  ( 0.0000000000000000000, -1.000000000000000000, 0.0000000000000000000 ) ) ;
#306 = DIRECTION ( 'NONE',  ( 3.491481338843133355E-15, -1.224646799147353207E-16, 1.000000000000000000 ) ) ;
#307 = CC_DESIGN_APPROVAL ( #221, ( #301 ) ) ;
#308 = PERSON_AND_ORGANIZATION ( #258, #310 ) ;
#309 = EDGE_LOOP ( 'NONE', ( #194 ) ) ;
#310 = ORGANIZATION ( 'UNSPECIFIED', 'UNSPECIFIED', '' ) ;
#311 = MANIFOLD_SOLID_BREP ( 'Corps-Déplacer/Copier4[1]', #55 ) ;
#312 = CALENDAR_DATE ( 2021, 13, 12 ) ;
#313 = MECHANICAL_CONTEXT ( 'NONE', #53, 'mechanical' ) ;
#314 = PERSON_AND_ORGANIZATION ( #258, #310 ) ;
#315 = AXIS2_PLACEMENT_3D ( 'NONE', #128, #107, #303 ) ;
#316 = APPLICATION_CONTEXT ( 'configuration controlled 3d designs of mechanical parts and assemblies' ) ;
#317 = AXIS2_PLACEMENT_3D ( 'NONE', #178, #306, #104 ) ;
#318 = EDGE_LOOP ( 'NONE', ( #57 ) ) ;
#319 = PERSON_AND_ORGANIZATION_ROLE ( 'design_supplier' ) ;
#320 = PRODUCT_DEFINITION_FORMATION_WITH_SPECIFIED_SOURCE ( 'ANY', '', #27, .NOT_KNOWN. ) ;
#321 = EDGE_LOOP ( 'NONE', ( #215 ) ) ;
#322 = PLANE ( 'NONE',  #241 ) ;
#323 = FACE_OUTER_BOUND ( 'NONE', #225, .T. ) ;
ENDSEC;
END-ISO-10303-21;
