ISO-10303-21;
HEADER;
FILE_DESCRIPTION (( 'STEP AP203' ),
    '1' );
FILE_NAME ('381931.step',
    '2021-12-13T13:55:59',
    ( '' ),
    ( '' ),
    'SwSTEP 2.0',
    'SolidWorks 2019',
    '' );
FILE_SCHEMA (( 'CONFIG_CONTROL_DESIGN' ));
ENDSEC;

DATA;
#1 = EDGE_LOOP ( 'NONE', ( #19 ) ) ;
#2 = CARTESIAN_POINT ( 'NONE',  ( 3.281992458512545354E-14, 1.959999999999997744, 9.400000000000000355 ) ) ;
#3 = APPROVAL_ROLE ( '' ) ;
#4 = APPLICATION_CONTEXT ( 'configuration controlled 3d designs of mechanical parts and assemblies' ) ;
#5 = CARTESIAN_POINT ( 'NONE',  ( 3.142333204958820020E-15, 2.249639673992784359E-33, 0.9000000000000000222 ) ) ;
#6 = ADVANCED_FACE ( 'NONE', ( #39, #9 ), #74, .T. ) ;
#7 = PRODUCT_DEFINITION_FORMATION_WITH_SPECIFIED_SOURCE ( 'ANY', '', #97, .NOT_KNOWN. ) ;
#8 = DIRECTION ( 'NONE',  ( 4.337587944509189251E-31, 1.000000000000000000, 1.224646799147353207E-16 ) ) ;
#9 = FACE_OUTER_BOUND ( 'NONE', #159, .T. ) ;
#10 = DIRECTION ( 'NONE',  ( 0.0000000000000000000, -1.000000000000000000, 0.0000000000000000000 ) ) ;
#11 = PERSON_AND_ORGANIZATION ( #24, #224 ) ;
#12 = DIRECTION ( 'NONE',  ( 3.491481338843133355E-15, -1.224646799147353207E-16, 1.000000000000000000 ) ) ;
#13 = DIRECTION ( 'NONE',  ( 0.0000000000000000000, 1.000000000000000000, 0.0000000000000000000 ) ) ;
#14 = CLOSED_SHELL ( 'NONE', ( #111, #339, #95, #235, #103, #6, #222, #72, #295, #114, #147 ) ) ;
#15 = CONICAL_SURFACE ( 'NONE', #245, 0.5654336271349706955, 0.2217440814658728498 ) ;
#16 = FACE_OUTER_BOUND ( 'NONE', #195, .T. ) ;
#17 = CARTESIAN_POINT ( 'NONE',  ( 3.142333204958820020E-15, -1.102182119232617788E-16, 0.9000000000000000222 ) ) ;
#18 = CARTESIAN_POINT ( 'NONE',  ( 0.0000000000000000000, 0.0000000000000000000, 0.0000000000000000000 ) ) ;
#19 = ORIENTED_EDGE ( 'NONE', *, *, #212, .F. ) ;
#20 = EDGE_CURVE ( 'NONE', #265, #265, #291, .T. ) ;
#21 = DIRECTION ( 'NONE',  ( 4.275831445896958607E-31, 1.000000000000000000, 1.224646799147353207E-16 ) ) ;
#22 = AXIS2_PLACEMENT_3D ( 'NONE', #30, #143, #221 ) ;
#23 = CARTESIAN_POINT ( 'NONE',  ( 3.281992458512545354E-14, 1.999999999999992228, 9.400000000000000355 ) ) ;
#24 = PERSON ( 'UNSPECIFIED', 'UNSPECIFIED', 'UNSPECIFIED', ('UNSPECIFIED'), ('UNSPECIFIED'), ('UNSPECIFIED') ) ;
#25 = CARTESIAN_POINT ( 'NONE',  ( 3.142333204958820020E-15, 0.2999999999999998224, 0.9000000000000000222 ) ) ;
#26 = AXIS2_PLACEMENT_3D ( 'NONE', #69, #155, #47 ) ;
#27 = DIRECTION ( 'NONE',  ( 1.000000000000000000, 0.0000000000000000000, 0.0000000000000000000 ) ) ;
#28 = AXIS2_PLACEMENT_3D ( 'NONE', #52, #164, #27 ) ;
#29 = EDGE_LOOP ( 'NONE', ( #87 ) ) ;
#30 = CARTESIAN_POINT ( 'NONE',  ( 1.012529588264508515E-14, 1.050157016132149689E-32, 2.899999999999999911 ) ) ;
#31 = UNCERTAINTY_MEASURE_WITH_UNIT (LENGTH_MEASURE( 1.000000000000000082E-05 ), #243, 'distance_accuracy_value', 'NONE');
#32 = EDGE_CURVE ( 'NONE', #241, #241, #100, .T. ) ;
#33 = FACE_OUTER_BOUND ( 'NONE', #175, .T. ) ;
#34 = ORIENTED_EDGE ( 'NONE', *, *, #20, .T. ) ;
#35 = COORDINATED_UNIVERSAL_TIME_OFFSET ( 1, 0, .AHEAD. ) ;
#36 = DIRECTION ( 'NONE',  ( -3.491481338843133355E-15, 1.224646799147353207E-16, -1.000000000000000000 ) ) ;
#37 = CC_DESIGN_PERSON_AND_ORGANIZATION_ASSIGNMENT ( #198, #334, ( #7 ) ) ;
#38 = APPROVAL_DATE_TIME ( #91, #162 ) ;
#39 = FACE_BOUND ( 'NONE', #132, .T. ) ;
#40 = DIRECTION ( 'NONE',  ( 0.0000000000000000000, 1.000000000000000000, 0.0000000000000000000 ) ) ;
#41 = DIRECTION ( 'NONE',  ( -3.491481338843133355E-15, 1.224646799147353207E-16, -1.000000000000000000 ) ) ;
#42 = CALENDAR_DATE ( 2021, 13, 12 ) ;
#43 = CC_DESIGN_DATE_AND_TIME_ASSIGNMENT ( #124, #64, ( #239 ) ) ;
#44 = CLOSED_SHELL ( 'NONE', ( #328, #273, #139 ) ) ;
#45 = DIRECTION ( 'NONE',  ( 0.0000000000000000000, -1.000000000000000000, 0.0000000000000000000 ) ) ;
#46 = ORIENTED_EDGE ( 'NONE', *, *, #255, .T. ) ;
#47 = DIRECTION ( 'NONE',  ( 0.0000000000000000000, 1.000000000000000000, 0.0000000000000000000 ) ) ;
#48 = ORIENTED_EDGE ( 'NONE', *, *, #82, .T. ) ;
#49 = EDGE_CURVE ( 'NONE', #56, #56, #184, .T. ) ;
#50 = VERTEX_POINT ( 'NONE', #318 ) ;
#51 = CARTESIAN_POINT ( 'NONE',  ( 1.012529588264508515E-14, 0.8349999999999995204, 2.899999999999999911 ) ) ;
#52 = CARTESIAN_POINT ( 'NONE',  ( 0.0000000000000000000, 0.0000000000000000000, 0.0000000000000000000 ) ) ;
#53 = CC_DESIGN_DATE_AND_TIME_ASSIGNMENT ( #149, #146, ( #122 ) ) ;
#54 = CONICAL_SURFACE ( 'NONE', #66, 1.599999999999996314, 0.7853981633974433940 ) ;
#55 = AXIS2_PLACEMENT_3D ( 'NONE', #116, #83, #163 ) ;
#56 = VERTEX_POINT ( 'NONE', #51 ) ;
#57 = FACE_OUTER_BOUND ( 'NONE', #287, .T. ) ;
#58 = COORDINATED_UNIVERSAL_TIME_OFFSET ( 1, 0, .AHEAD. ) ;
#59 = CALENDAR_DATE ( 2021, 13, 12 ) ;
#60 = DIRECTION ( 'NONE',  ( 3.491481338843133355E-15, -1.224646799147353207E-16, 1.000000000000000000 ) ) ;
#61 = ORIENTED_EDGE ( 'NONE', *, *, #335, .F. ) ;
#62 = PERSON_AND_ORGANIZATION ( #24, #224 ) ;
#63 = DIRECTION ( 'NONE',  ( -3.491481338843133355E-15, 1.224646799147353207E-16, -1.000000000000000000 ) ) ;
#64 = DATE_TIME_ROLE ( 'classification_date' ) ;
#65 = CARTESIAN_POINT ( 'NONE',  ( -1.069031093998038848E-31, 3.749656321770509779E-33, -3.061826744152817170E-17 ) ) ;
#66 = AXIS2_PLACEMENT_3D ( 'NONE', #145, #246, #299 ) ;
#67 =( GEOMETRIC_REPRESENTATION_CONTEXT ( 3 ) GLOBAL_UNCERTAINTY_ASSIGNED_CONTEXT ( ( #31 ) ) GLOBAL_UNIT_ASSIGNED_CONTEXT ( ( #243, #161, #137 ) ) REPRESENTATION_CONTEXT ( 'NONE', 'WORKASPACE' ) );
#68 = PERSON_AND_ORGANIZATION_ROLE ( 'design_supplier' ) ;
#69 = CARTESIAN_POINT ( 'NONE',  ( 1.012529588264508515E-14, -3.551475717527323832E-16, 2.899999999999999911 ) ) ;
#70 = DIRECTION ( 'NONE',  ( -3.491481338843133355E-15, 1.224646799147353207E-16, -1.000000000000000000 ) ) ;
#71 = FACE_OUTER_BOUND ( 'NONE', #324, .T. ) ;
#72 = ADVANCED_FACE ( 'NONE', ( #188, #259 ), #160, .F. ) ;
#73 = DIRECTION ( 'NONE',  ( 0.0000000000000000000, 1.000000000000000000, 0.0000000000000000000 ) ) ;
#74 = CONICAL_SURFACE ( 'NONE', #144, 1.959999999999999520, 0.2217440814658727943 ) ;
#75 = AXIS2_PLACEMENT_3D ( 'NONE', #305, #99, #128 ) ;
#76 = CIRCLE ( 'NONE', #213, 1.999999999999997113 ) ;
#77 = DIRECTION ( 'NONE',  ( -3.491481338843133355E-15, 1.224646799147353207E-16, -1.000000000000000000 ) ) ;
#78 = APPROVAL ( #98, 'UNSPECIFIED' ) ;
#79 = VERTEX_POINT ( 'NONE', #214 ) ;
#80 = EDGE_LOOP ( 'NONE', ( #85 ) ) ;
#81 = TOROIDAL_SURFACE ( 'NONE', #194, 2.299999999999999822, 2.000000000000000000 ) ;
#82 = EDGE_CURVE ( 'NONE', #136, #136, #217, .T. ) ;
#83 = DIRECTION ( 'NONE',  ( -3.491481338843133355E-15, 1.224646799147353207E-16, -1.000000000000000000 ) ) ;
#84 = PERSON_AND_ORGANIZATION ( #24, #224 ) ;
#85 = ORIENTED_EDGE ( 'NONE', *, *, #125, .F. ) ;
#86 = CIRCLE ( 'NONE', #26, 0.5654336271349706955 ) ;
#87 = ORIENTED_EDGE ( 'NONE', *, *, #125, .T. ) ;
#88 = PLANE ( 'NONE',  #22 ) ;
#89 = ORIENTED_EDGE ( 'NONE', *, *, #20, .F. ) ;
#90 = ADVANCED_BREP_SHAPE_REPRESENTATION ( '381931', ( #320, #92, #28 ), #67 ) ;
#91 = DATE_AND_TIME ( #220, #108 ) ;
#92 = MANIFOLD_SOLID_BREP ( 'Corps-Déplacer/Copier1[2]', #44 ) ;
#93 = PERSON_AND_ORGANIZATION_ROLE ( 'classification_officer' ) ;
#94 = DIRECTION ( 'NONE',  ( 0.0000000000000000000, 1.000000000000000000, 0.0000000000000000000 ) ) ;
#95 = ADVANCED_FACE ( 'NONE', ( #120, #266 ), #81, .F. ) ;
#96 = ORIENTED_EDGE ( 'NONE', *, *, #32, .T. ) ;
#97 = PRODUCT ( '381931', '381931', '', ( #319 ) ) ;
#98 = APPROVAL_STATUS ( 'not_yet_approved' ) ;
#99 = DIRECTION ( 'NONE',  ( -3.491481338843133355E-15, 1.224646799147353207E-16, -1.000000000000000000 ) ) ;
#100 = CIRCLE ( 'NONE', #140, 0.2999999999999999334 ) ;
#101 = FACE_OUTER_BOUND ( 'NONE', #285, .T. ) ;
#102 = DIRECTION ( 'NONE',  ( -3.491481338843133355E-15, 1.224646799147353207E-16, -1.000000000000000000 ) ) ;
#103 = ADVANCED_FACE ( 'NONE', ( #121, #200 ), #88, .F. ) ;
#104 = DIRECTION ( 'NONE',  ( -3.491481338843133355E-15, 1.224646799147353207E-16, -1.000000000000000000 ) ) ;
#105 = ORIENTED_EDGE ( 'NONE', *, *, #309, .F. ) ;
#106 = DIRECTION ( 'NONE',  ( 0.0000000000000000000, 1.000000000000000000, 0.0000000000000000000 ) ) ;
#107 = AXIS2_PLACEMENT_3D ( 'NONE', #311, #41, #329 ) ;
#108 = LOCAL_TIME ( 14, 55, 59.00000000000000000, #196 ) ;
#109 = DIRECTION ( 'NONE',  ( 0.0000000000000000000, 1.000000000000000000, 0.0000000000000000000 ) ) ;
#110 = DIRECTION ( 'NONE',  ( -3.491481338843133355E-15, 1.224646799147353207E-16, -1.000000000000000000 ) ) ;
#111 = ADVANCED_FACE ( 'NONE', ( #33 ), #267, .F. ) ;
#112 = EDGE_LOOP ( 'NONE', ( #105 ) ) ;
#113 = CARTESIAN_POINT ( 'NONE',  ( 6.772994311974851400E-15, 0.3489692899384951308, 1.939862669928808403 ) ) ;
#114 = ADVANCED_FACE ( 'NONE', ( #57, #172 ), #54, .T. ) ;
#115 = VERTEX_POINT ( 'NONE', #211 ) ;
#116 = CARTESIAN_POINT ( 'NONE',  ( 0.0000000000000000000, 0.0000000000000000000, 0.0000000000000000000 ) ) ;
#117 = APPROVAL_STATUS ( 'not_yet_approved' ) ;
#118 = AXIS2_PLACEMENT_3D ( 'NONE', #185, #77, #133 ) ;
#119 = COORDINATED_UNIVERSAL_TIME_OFFSET ( 1, 0, .AHEAD. ) ;
#120 = FACE_OUTER_BOUND ( 'NONE', #29, .T. ) ;
#121 = FACE_BOUND ( 'NONE', #223, .T. ) ;
#122 = PRODUCT_DEFINITION ( 'UNKNOWN', '', #7, #293 ) ;
#123 = AXIS2_PLACEMENT_3D ( 'NONE', #65, #205, #21 ) ;
#124 = DATE_AND_TIME ( #304, #135 ) ;
#125 = EDGE_CURVE ( 'NONE', #343, #343, #129, .T. ) ;
#126 = CARTESIAN_POINT ( 'NONE',  ( 3.281992458512545354E-14, -1.151167991198511931E-15, 9.400000000000000355 ) ) ;
#127 = CARTESIAN_POINT ( 'NONE',  ( 1.312796983405018142E-13, -4.604671964794046935E-15, 37.59999999999999432 ) ) ;
#128 = DIRECTION ( 'NONE',  ( 0.0000000000000000000, 1.000000000000000000, 0.0000000000000000000 ) ) ;
#129 = CIRCLE ( 'NONE', #171, 0.3489692899384953528 ) ;
#130 = PERSON_AND_ORGANIZATION ( #24, #224 ) ;
#131 = FACE_OUTER_BOUND ( 'NONE', #233, .T. ) ;
#132 = EDGE_LOOP ( 'NONE', ( #294 ) ) ;
#133 = DIRECTION ( 'NONE',  ( 4.275831445896958607E-31, 1.000000000000000000, 1.224646799147353207E-16 ) ) ;
#134 = DIRECTION ( 'NONE',  ( 3.491481338843133355E-15, -1.224646799147353207E-16, 1.000000000000000000 ) ) ;
#135 = LOCAL_TIME ( 14, 55, 59.00000000000000000, #201 ) ;
#136 = VERTEX_POINT ( 'NONE', #2 ) ;
#137 =( NAMED_UNIT ( * ) SI_UNIT ( $, .STERADIAN. ) SOLID_ANGLE_UNIT ( ) );
#138 = ORIENTED_EDGE ( 'NONE', *, *, #290, .F. ) ;
#139 = ADVANCED_FACE ( 'NONE', ( #154 ), #181, .T. ) ;
#140 = AXIS2_PLACEMENT_3D ( 'NONE', #17, #102, #234 ) ;
#141 = CIRCLE ( 'NONE', #292, 1.959999999999999520 ) ;
#142 = CARTESIAN_POINT ( 'NONE',  ( 1.312796983405018142E-13, 1.999999999999992228, 37.59999999999999432 ) ) ;
#143 = DIRECTION ( 'NONE',  ( 3.491481338843133355E-15, -1.224646799147353207E-16, 1.000000000000000000 ) ) ;
#144 = AXIS2_PLACEMENT_3D ( 'NONE', #274, #153, #10 ) ;
#145 = CARTESIAN_POINT ( 'NONE',  ( 1.326762908760390423E-13, -4.653657836759941941E-15, 38.00000000000000000 ) ) ;
#146 = DATE_TIME_ROLE ( 'creation_date' ) ;
#147 = ADVANCED_FACE ( 'NONE', ( #16 ), #278, .F. ) ;
#148 = ORIENTED_EDGE ( 'NONE', *, *, #207, .T. ) ;
#149 = DATE_AND_TIME ( #59, #167 ) ;
#150 = AXIS2_PLACEMENT_3D ( 'NONE', #332, #70, #109 ) ;
#151 = CC_DESIGN_APPROVAL ( #282, ( #7 ) ) ;
#152 = DIRECTION ( 'NONE',  ( -4.275831445896958607E-31, -1.000000000000000000, -1.224646799147353207E-16 ) ) ;
#153 = DIRECTION ( 'NONE',  ( 3.491481338843133355E-15, -1.224646799147353207E-16, 1.000000000000000000 ) ) ;
#154 = FACE_OUTER_BOUND ( 'NONE', #218, .T. ) ;
#155 = DIRECTION ( 'NONE',  ( -3.491481338843133355E-15, 1.224646799147353207E-16, -1.000000000000000000 ) ) ;
#156 = FACE_OUTER_BOUND ( 'NONE', #1, .T. ) ;
#157 = ORIENTED_EDGE ( 'NONE', *, *, #207, .F. ) ;
#158 = PRODUCT_RELATED_PRODUCT_CATEGORY ( 'detail', '', ( #97 ) ) ;
#159 = EDGE_LOOP ( 'NONE', ( #297 ) ) ;
#160 = PLANE ( 'NONE',  #229 ) ;
#161 =( NAMED_UNIT ( * ) PLANE_ANGLE_UNIT ( ) SI_UNIT ( $, .RADIAN. ) );
#162 = APPROVAL ( #326, 'UNSPECIFIED' ) ;
#163 = DIRECTION ( 'NONE',  ( 4.275831445896958607E-31, 1.000000000000000000, 1.224646799147353207E-16 ) ) ;
#164 = DIRECTION ( 'NONE',  ( 0.0000000000000000000, 0.0000000000000000000, 1.000000000000000000 ) ) ;
#165 = AXIS2_PLACEMENT_3D ( 'NONE', #258, #206, #254 ) ;
#166 = CC_DESIGN_PERSON_AND_ORGANIZATION_ASSIGNMENT ( #130, #93, ( #239 ) ) ;
#167 = LOCAL_TIME ( 14, 55, 59.00000000000000000, #35 ) ;
#168 = EDGE_LOOP ( 'NONE', ( #257 ) ) ;
#169 = PERSON_AND_ORGANIZATION_ROLE ( 'creator' ) ;
#170 = EDGE_LOOP ( 'NONE', ( #300 ) ) ;
#171 = AXIS2_PLACEMENT_3D ( 'NONE', #303, #63, #183 ) ;
#172 = FACE_BOUND ( 'NONE', #271, .T. ) ;
#173 = EDGE_LOOP ( 'NONE', ( #276 ) ) ;
#174 = DATE_AND_TIME ( #42, #283 ) ;
#175 = EDGE_LOOP ( 'NONE', ( #96 ) ) ;
#176 = SHAPE_DEFINITION_REPRESENTATION ( #272, #90 ) ;
#177 = EDGE_LOOP ( 'NONE', ( #48 ) ) ;
#178 = CC_DESIGN_APPROVAL ( #162, ( #122 ) ) ;
#179 = CARTESIAN_POINT ( 'NONE',  ( 2.754774669301081722E-14, -9.662448839693912963E-16, 7.889988236952307332 ) ) ;
#180 = EDGE_LOOP ( 'NONE', ( #34 ) ) ;
#181 = PLANE ( 'NONE',  #165 ) ;
#182 = SECURITY_CLASSIFICATION_LEVEL ( 'unclassified' ) ;
#183 = DIRECTION ( 'NONE',  ( 0.0000000000000000000, 1.000000000000000000, 0.0000000000000000000 ) ) ;
#184 = CIRCLE ( 'NONE', #150, 0.8349999999999998535 ) ;
#185 = CARTESIAN_POINT ( 'NONE',  ( 0.0000000000000000000, 0.0000000000000000000, 0.0000000000000000000 ) ) ;
#186 = AXIS2_PLACEMENT_3D ( 'NONE', #228, #280, #73 ) ;
#187 = CARTESIAN_POINT ( 'NONE',  ( 0.0000000000000000000, 0.0000000000000000000, 0.0000000000000000000 ) ) ;
#188 = FACE_BOUND ( 'NONE', #173, .T. ) ;
#189 = CARTESIAN_POINT ( 'NONE',  ( 1.012529588264508515E-14, 0.5654336271349704734, 2.899999999999999911 ) ) ;
#190 = AXIS2_PLACEMENT_3D ( 'NONE', #296, #306, #94 ) ;
#191 = CIRCLE ( 'NONE', #75, 0.2999999999999999889 ) ;
#192 = EDGE_CURVE ( 'NONE', #340, #340, #208, .T. ) ;
#193 = PERSON_AND_ORGANIZATION_ROLE ( 'design_owner' ) ;
#194 = AXIS2_PLACEMENT_3D ( 'NONE', #270, #36, #8 ) ;
#195 = EDGE_LOOP ( 'NONE', ( #337 ) ) ;
#196 = COORDINATED_UNIVERSAL_TIME_OFFSET ( 1, 0, .AHEAD. ) ;
#197 = CC_DESIGN_PERSON_AND_ORGANIZATION_ASSIGNMENT ( #84, #193, ( #97 ) ) ;
#198 = PERSON_AND_ORGANIZATION ( #24, #224 ) ;
#199 = CC_DESIGN_SECURITY_CLASSIFICATION ( #239, ( #7 ) ) ;
#200 = FACE_OUTER_BOUND ( 'NONE', #317, .T. ) ;
#201 = COORDINATED_UNIVERSAL_TIME_OFFSET ( 1, 0, .AHEAD. ) ;
#202 = CIRCLE ( 'NONE', #261, 0.2999999999999999334 ) ;
#203 = FACE_BOUND ( 'NONE', #80, .T. ) ;
#204 = CARTESIAN_POINT ( 'NONE',  ( 3.281992458512545354E-14, 2.969524369670470729E-32, 9.400000000000000355 ) ) ;
#205 = DIRECTION ( 'NONE',  ( -3.491481338843133355E-15, 1.224646799147353207E-16, -1.000000000000000000 ) ) ;
#206 = DIRECTION ( 'NONE',  ( 3.491481338843133355E-15, -1.224646799147353207E-16, 1.000000000000000000 ) ) ;
#207 = EDGE_CURVE ( 'NONE', #314, #314, #86, .T. ) ;
#208 = CIRCLE ( 'NONE', #186, 1.599999999999996314 ) ;
#209 = FACE_OUTER_BOUND ( 'NONE', #321, .T. ) ;
#210 = APPROVAL_PERSON_ORGANIZATION ( #249, #282, #3 ) ;
#211 = CARTESIAN_POINT ( 'NONE',  ( 3.142333204958820020E-15, 0.2999999999999998224, 0.9000000000000000222 ) ) ;
#212 = EDGE_CURVE ( 'NONE', #79, #79, #264, .T. ) ;
#213 = AXIS2_PLACEMENT_3D ( 'NONE', #127, #308, #13 ) ;
#214 = CARTESIAN_POINT ( 'NONE',  ( 2.137183397710479182E-32, 0.2999999999999998224, 6.121136532892404794E-18 ) ) ;
#215 = ORIENTED_EDGE ( 'NONE', *, *, #192, .T. ) ;
#216 = APPROVAL_ROLE ( '' ) ;
#217 = CIRCLE ( 'NONE', #190, 1.959999999999999076 ) ;
#218 = EDGE_LOOP ( 'NONE', ( #315 ) ) ;
#219 = CALENDAR_DATE ( 2021, 13, 12 ) ;
#220 = CALENDAR_DATE ( 2021, 13, 12 ) ;
#221 = DIRECTION ( 'NONE',  ( -4.275831445896958607E-31, -1.000000000000000000, -1.224646799147353207E-16 ) ) ;
#222 = ADVANCED_FACE ( 'NONE', ( #131, #232 ), #333, .T. ) ;
#223 = EDGE_LOOP ( 'NONE', ( #157 ) ) ;
#224 = ORGANIZATION ( 'UNSPECIFIED', 'UNSPECIFIED', '' ) ;
#225 = PERSON_AND_ORGANIZATION ( #24, #224 ) ;
#226 = DIRECTION ( 'NONE',  ( -3.491481338843133355E-15, 1.224646799147353207E-16, -1.000000000000000000 ) ) ;
#227 = APPLICATION_CONTEXT ( 'configuration controlled 3d designs of mechanical parts and assemblies' ) ;
#228 = CARTESIAN_POINT ( 'NONE',  ( 1.326762908760390423E-13, -4.653657836759941941E-15, 38.00000000000000000 ) ) ;
#229 = AXIS2_PLACEMENT_3D ( 'NONE', #204, #60, #152 ) ;
#230 = AXIS2_PLACEMENT_3D ( 'NONE', #250, #12, #231 ) ;
#231 = DIRECTION ( 'NONE',  ( -4.275831445896958607E-31, -1.000000000000000000, -1.224646799147353207E-16 ) ) ;
#232 = FACE_OUTER_BOUND ( 'NONE', #177, .T. ) ;
#233 = EDGE_LOOP ( 'NONE', ( #138 ) ) ;
#234 = DIRECTION ( 'NONE',  ( 0.0000000000000000000, 1.000000000000000000, 0.0000000000000000000 ) ) ;
#235 = ADVANCED_FACE ( 'NONE', ( #203, #71 ), #15, .T. ) ;
#236 = CARTESIAN_POINT ( 'NONE',  ( 3.142333204958820020E-15, -1.102182119232617788E-16, 0.9000000000000000222 ) ) ;
#237 = AXIS2_PLACEMENT_3D ( 'NONE', #5, #325, #269 ) ;
#238 = CYLINDRICAL_SURFACE ( 'NONE', #268, 1.999999999999995337 ) ;
#239 = SECURITY_CLASSIFICATION ( '', '', #182 ) ;
#240 = ORIENTED_EDGE ( 'NONE', *, *, #49, .T. ) ;
#241 = VERTEX_POINT ( 'NONE', #25 ) ;
#242 = APPLICATION_PROTOCOL_DEFINITION ( 'international standard', 'config_control_design', 1994, #227 ) ;
#243 =( LENGTH_UNIT ( ) NAMED_UNIT ( * ) SI_UNIT ( .MILLI., .METRE. ) );
#244 = APPROVAL_DATE_TIME ( #341, #282 ) ;
#245 = AXIS2_PLACEMENT_3D ( 'NONE', #281, #134, #45 ) ;
#246 = DIRECTION ( 'NONE',  ( -3.491481338843133355E-15, 1.224646799147353207E-16, -1.000000000000000000 ) ) ;
#247 = EDGE_LOOP ( 'NONE', ( #286 ) ) ;
#248 = LOCAL_TIME ( 14, 55, 59.00000000000000000, #119 ) ;
#249 = PERSON_AND_ORGANIZATION ( #24, #224 ) ;
#250 = CARTESIAN_POINT ( 'NONE',  ( -5.345155469990194241E-32, 1.874828160885254890E-33, -1.530913372076408585E-17 ) ) ;
#251 = DIRECTION ( 'NONE',  ( -3.491481338843133355E-15, 1.224646799147353207E-16, -1.000000000000000000 ) ) ;
#252 = EDGE_LOOP ( 'NONE', ( #323 ) ) ;
#253 = AXIS2_PLACEMENT_3D ( 'NONE', #18, #104, #256 ) ;
#254 = DIRECTION ( 'NONE',  ( -4.275831445896958607E-31, -1.000000000000000000, -1.224646799147353207E-16 ) ) ;
#255 = EDGE_CURVE ( 'NONE', #115, #115, #202, .T. ) ;
#256 = DIRECTION ( 'NONE',  ( 4.275831445896958607E-31, 1.000000000000000000, 1.224646799147353207E-16 ) ) ;
#257 = ORIENTED_EDGE ( 'NONE', *, *, #212, .T. ) ;
#258 = CARTESIAN_POINT ( 'NONE',  ( 3.142333204958820020E-15, 2.249639673992784359E-33, 0.9000000000000000222 ) ) ;
#259 = FACE_OUTER_BOUND ( 'NONE', #180, .T. ) ;
#260 = CYLINDRICAL_SURFACE ( 'NONE', #55, 0.2999999999999999334 ) ;
#261 = AXIS2_PLACEMENT_3D ( 'NONE', #236, #110, #40 ) ;
#262 = VERTEX_POINT ( 'NONE', #316 ) ;
#263 = VERTEX_POINT ( 'NONE', #142 ) ;
#264 = CIRCLE ( 'NONE', #123, 0.2999999999999998224 ) ;
#265 = VERTEX_POINT ( 'NONE', #23 ) ;
#266 = FACE_OUTER_BOUND ( 'NONE', #112, .T. ) ;
#267 = PLANE ( 'NONE',  #237 ) ;
#268 = AXIS2_PLACEMENT_3D ( 'NONE', #187, #284, #336 ) ;
#269 = DIRECTION ( 'NONE',  ( -4.275831445896958607E-31, -1.000000000000000000, -1.224646799147353207E-16 ) ) ;
#270 = CARTESIAN_POINT ( 'NONE',  ( 5.237222008264699244E-15, 0.0000000000000000000, 1.499999999999999778 ) ) ;
#271 = EDGE_LOOP ( 'NONE', ( #215 ) ) ;
#272 = PRODUCT_DEFINITION_SHAPE ( 'NONE', 'NONE',  #122 ) ;
#273 = ADVANCED_FACE ( 'NONE', ( #156, #101 ), #331, .T. ) ;
#274 = CARTESIAN_POINT ( 'NONE',  ( 2.754774669301081722E-14, -9.662448839693912963E-16, 7.889988236952307332 ) ) ;
#275 = PLANE ( 'NONE',  #230 ) ;
#276 = ORIENTED_EDGE ( 'NONE', *, *, #82, .F. ) ;
#277 = CC_DESIGN_APPROVAL ( #78, ( #239 ) ) ;
#278 = PLANE ( 'NONE',  #107 ) ;
#279 = APPROVAL_ROLE ( '' ) ;
#280 = DIRECTION ( 'NONE',  ( -3.491481338843133355E-15, 1.224646799147353207E-16, -1.000000000000000000 ) ) ;
#281 = CARTESIAN_POINT ( 'NONE',  ( 1.012529588264508515E-14, -3.551475717527323832E-16, 2.899999999999999911 ) ) ;
#282 = APPROVAL ( #117, 'UNSPECIFIED' ) ;
#283 = LOCAL_TIME ( 14, 55, 59.00000000000000000, #58 ) ;
#284 = DIRECTION ( 'NONE',  ( -3.491481338843133355E-15, 1.224646799147353207E-16, -1.000000000000000000 ) ) ;
#285 = EDGE_LOOP ( 'NONE', ( #46 ) ) ;
#286 = ORIENTED_EDGE ( 'NONE', *, *, #32, .F. ) ;
#287 = EDGE_LOOP ( 'NONE', ( #61 ) ) ;
#288 = CARTESIAN_POINT ( 'NONE',  ( 1.326762908760390423E-13, 1.599999999999991873, 38.00000000000000000 ) ) ;
#289 = CC_DESIGN_PERSON_AND_ORGANIZATION_ASSIGNMENT ( #225, #68, ( #7 ) ) ;
#290 = EDGE_CURVE ( 'NONE', #50, #50, #141, .T. ) ;
#291 = CIRCLE ( 'NONE', #327, 1.999999999999993561 ) ;
#292 = AXIS2_PLACEMENT_3D ( 'NONE', #179, #251, #106 ) ;
#293 = DESIGN_CONTEXT ( 'detailed design', #4, 'design' ) ;
#294 = ORIENTED_EDGE ( 'NONE', *, *, #49, .F. ) ;
#295 = ADVANCED_FACE ( 'NONE', ( #209, #313 ), #238, .T. ) ;
#296 = CARTESIAN_POINT ( 'NONE',  ( 3.281992458512545354E-14, -1.151167991198511931E-15, 9.400000000000000355 ) ) ;
#297 = ORIENTED_EDGE ( 'NONE', *, *, #290, .T. ) ;
#298 = PERSON_AND_ORGANIZATION ( #24, #224 ) ;
#299 = DIRECTION ( 'NONE',  ( 0.0000000000000000000, 1.000000000000000000, 0.0000000000000000000 ) ) ;
#300 = ORIENTED_EDGE ( 'NONE', *, *, #309, .T. ) ;
#301 = APPROVAL_DATE_TIME ( #174, #78 ) ;
#302 = APPLICATION_PROTOCOL_DEFINITION ( 'international standard', 'config_control_design', 1994, #4 ) ;
#303 = CARTESIAN_POINT ( 'NONE',  ( 6.772994311974851400E-15, -2.375646609513753807E-16, 1.939862669928808403 ) ) ;
#304 = CALENDAR_DATE ( 2021, 13, 12 ) ;
#305 = CARTESIAN_POINT ( 'NONE',  ( 5.237222008264700033E-15, -1.836970198721029934E-16, 1.500000000000000000 ) ) ;
#306 = DIRECTION ( 'NONE',  ( -3.491481338843133355E-15, 1.224646799147353207E-16, -1.000000000000000000 ) ) ;
#307 = DIRECTION ( 'NONE',  ( 0.0000000000000000000, 1.000000000000000000, 0.0000000000000000000 ) ) ;
#308 = DIRECTION ( 'NONE',  ( -3.491481338843133355E-15, 1.224646799147353207E-16, -1.000000000000000000 ) ) ;
#309 = EDGE_CURVE ( 'NONE', #262, #262, #191, .T. ) ;
#310 = FACE_OUTER_BOUND ( 'NONE', #168, .T. ) ;
#311 = CARTESIAN_POINT ( 'NONE',  ( 1.326762908760390423E-13, 1.199807826129476644E-32, 38.00000000000000000 ) ) ;
#312 = APPROVAL_PERSON_ORGANIZATION ( #62, #162, #216 ) ;
#313 = FACE_OUTER_BOUND ( 'NONE', #252, .T. ) ;
#314 = VERTEX_POINT ( 'NONE', #189 ) ;
#315 = ORIENTED_EDGE ( 'NONE', *, *, #255, .F. ) ;
#316 = CARTESIAN_POINT ( 'NONE',  ( 5.237222008264700033E-15, 0.2999999999999998224, 1.500000000000000000 ) ) ;
#317 = EDGE_LOOP ( 'NONE', ( #240 ) ) ;
#318 = CARTESIAN_POINT ( 'NONE',  ( 2.754774669301081722E-14, 1.959999999999998632, 7.889988236952307332 ) ) ;
#319 = MECHANICAL_CONTEXT ( 'NONE', #227, 'mechanical' ) ;
#320 = MANIFOLD_SOLID_BREP ( 'Corps-Déplacer/Copier1[1]', #14 ) ;
#321 = EDGE_LOOP ( 'NONE', ( #89 ) ) ;
#322 = APPROVAL_PERSON_ORGANIZATION ( #11, #78, #279 ) ;
#323 = ORIENTED_EDGE ( 'NONE', *, *, #335, .T. ) ;
#324 = EDGE_LOOP ( 'NONE', ( #148 ) ) ;
#325 = DIRECTION ( 'NONE',  ( 3.491481338843133355E-15, -1.224646799147353207E-16, 1.000000000000000000 ) ) ;
#326 = APPROVAL_STATUS ( 'not_yet_approved' ) ;
#327 = AXIS2_PLACEMENT_3D ( 'NONE', #126, #226, #307 ) ;
#328 = ADVANCED_FACE ( 'NONE', ( #310 ), #275, .F. ) ;
#329 = DIRECTION ( 'NONE',  ( 4.275831445896958607E-31, 1.000000000000000000, 1.224646799147353207E-16 ) ) ;
#330 = FACE_OUTER_BOUND ( 'NONE', #247, .T. ) ;
#331 = CYLINDRICAL_SURFACE ( 'NONE', #253, 0.2999999999999998779 ) ;
#332 = CARTESIAN_POINT ( 'NONE',  ( 1.012529588264508515E-14, -3.551475717527323832E-16, 2.899999999999999911 ) ) ;
#333 = CYLINDRICAL_SURFACE ( 'NONE', #118, 1.959999999999999076 ) ;
#334 = PERSON_AND_ORGANIZATION_ROLE ( 'creator' ) ;
#335 = EDGE_CURVE ( 'NONE', #263, #263, #76, .T. ) ;
#336 = DIRECTION ( 'NONE',  ( 4.275831445896958607E-31, 1.000000000000000000, 1.224646799147353207E-16 ) ) ;
#337 = ORIENTED_EDGE ( 'NONE', *, *, #192, .F. ) ;
#338 = FACE_OUTER_BOUND ( 'NONE', #170, .T. ) ;
#339 = ADVANCED_FACE ( 'NONE', ( #330, #338 ), #260, .T. ) ;
#340 = VERTEX_POINT ( 'NONE', #288 ) ;
#341 = DATE_AND_TIME ( #219, #248 ) ;
#342 = CC_DESIGN_PERSON_AND_ORGANIZATION_ASSIGNMENT ( #298, #169, ( #122 ) ) ;
#343 = VERTEX_POINT ( 'NONE', #113 ) ;
ENDSEC;
END-ISO-10303-21;
