ISO-10303-21;
HEADER;
FILE_DESCRIPTION (( 'STEP AP203' ),
    '1' );
FILE_NAME ('381930.step',
    '2021-12-13T13:55:58',
    ( '' ),
    ( '' ),
    'SwSTEP 2.0',
    'SolidWorks 2019',
    '' );
FILE_SCHEMA (( 'CONFIG_CONTROL_DESIGN' ));
ENDSEC;

DATA;
#1 = EDGE_LOOP ( 'NONE', ( #230 ) ) ;
#2 = CALENDAR_DATE ( 2021, 13, 12 ) ;
#3 = AXIS2_PLACEMENT_3D ( 'NONE', #87, #323, #91 ) ;
#4 = FACE_OUTER_BOUND ( 'NONE', #181, .T. ) ;
#5 = PERSON_AND_ORGANIZATION ( #165, #320 ) ;
#6 = PRODUCT_DEFINITION_FORMATION_WITH_SPECIFIED_SOURCE ( 'ANY', '', #29, .NOT_KNOWN. ) ;
#7 = FACE_OUTER_BOUND ( 'NONE', #268, .T. ) ;
#8 = DIRECTION ( 'NONE',  ( 4.275831445896958607E-31, 1.000000000000000000, 1.224646799147353207E-16 ) ) ;
#9 = ADVANCED_FACE ( 'NONE', ( #141, #7 ), #226, .F. ) ;
#10 = PERSON_AND_ORGANIZATION_ROLE ( 'creator' ) ;
#11 = CARTESIAN_POINT ( 'NONE',  ( 3.281992458512545354E-14, -1.151167991198511931E-15, 9.400000000000000355 ) ) ;
#12 = CARTESIAN_POINT ( 'NONE',  ( 4.364351673553916694E-15, 0.2499999999999998890, 1.250000000000000000 ) ) ;
#13 = FACE_BOUND ( 'NONE', #123, .T. ) ;
#14 = AXIS2_PLACEMENT_3D ( 'NONE', #149, #258, #70 ) ;
#15 = CARTESIAN_POINT ( 'NONE',  ( 0.0000000000000000000, 0.0000000000000000000, 0.0000000000000000000 ) ) ;
#16 = EDGE_LOOP ( 'NONE', ( #252 ) ) ;
#17 = VERTEX_POINT ( 'NONE', #227 ) ;
#18 = APPROVAL ( #325, 'UNSPECIFIED' ) ;
#19 = DIRECTION ( 'NONE',  ( -3.491481338843133355E-15, 1.224646799147353207E-16, -1.000000000000000000 ) ) ;
#20 = DIRECTION ( 'NONE',  ( 0.0000000000000000000, -1.000000000000000000, 0.0000000000000000000 ) ) ;
#21 = EDGE_CURVE ( 'NONE', #122, #122, #263, .T. ) ;
#22 = FACE_OUTER_BOUND ( 'NONE', #1, .T. ) ;
#23 = AXIS2_PLACEMENT_3D ( 'NONE', #74, #59, #169 ) ;
#24 = EDGE_CURVE ( 'NONE', #46, #46, #329, .T. ) ;
#25 = APPROVAL_ROLE ( '' ) ;
#26 = APPLICATION_PROTOCOL_DEFINITION ( 'international standard', 'config_control_design', 1994, #285 ) ;
#27 = CIRCLE ( 'NONE', #211, 0.2500000000000000000 ) ;
#28 = APPROVAL_PERSON_ORGANIZATION ( #264, #73, #25 ) ;
#29 = PRODUCT ( '381930', '381930', '', ( #242 ) ) ;
#30 = ORIENTED_EDGE ( 'NONE', *, *, #21, .T. ) ;
#31 = PERSON_AND_ORGANIZATION ( #165, #320 ) ;
#32 = PERSON_AND_ORGANIZATION_ROLE ( 'classification_officer' ) ;
#33 = EDGE_CURVE ( 'NONE', #17, #17, #298, .T. ) ;
#34 = CARTESIAN_POINT ( 'NONE',  ( 2.793185071074506684E-15, -9.797174393178826150E-17, 0.8000000000000000444 ) ) ;
#35 = ORIENTED_EDGE ( 'NONE', *, *, #37, .T. ) ;
#36 = CARTESIAN_POINT ( 'NONE',  ( -8.552395217031912681E-32, 2.999776430439581318E-33, -2.449503344579141306E-17 ) ) ;
#37 = EDGE_CURVE ( 'NONE', #332, #332, #126, .T. ) ;
#38 = DIRECTION ( 'NONE',  ( -3.491481338843133355E-15, 1.224646799147353207E-16, -1.000000000000000000 ) ) ;
#39 = ORIENTED_EDGE ( 'NONE', *, *, #93, .F. ) ;
#40 = FACE_BOUND ( 'NONE', #94, .T. ) ;
#41 = ORIENTED_EDGE ( 'NONE', *, *, #44, .F. ) ;
#42 = VERTEX_POINT ( 'NONE', #97 ) ;
#43 = FACE_OUTER_BOUND ( 'NONE', #297, .T. ) ;
#44 = EDGE_CURVE ( 'NONE', #231, #231, #312, .T. ) ;
#45 = ORIENTED_EDGE ( 'NONE', *, *, #37, .F. ) ;
#46 = VERTEX_POINT ( 'NONE', #12 ) ;
#47 = CONICAL_SURFACE ( 'NONE', #241, 0.3914353388388223665, 0.2217440814658735160 ) ;
#48 = ORIENTED_EDGE ( 'NONE', *, *, #184, .F. ) ;
#49 = FACE_OUTER_BOUND ( 'NONE', #286, .T. ) ;
#50 = EDGE_LOOP ( 'NONE', ( #152 ) ) ;
#51 = CARTESIAN_POINT ( 'NONE',  ( 7.332110811570581624E-15, 0.3914353388388220889, 2.100000000000000089 ) ) ;
#52 = AXIS2_PLACEMENT_3D ( 'NONE', #197, #112, #270 ) ;
#53 = PERSON_AND_ORGANIZATION_ROLE ( 'design_owner' ) ;
#54 = APPROVAL_DATE_TIME ( #317, #318 ) ;
#55 = CC_DESIGN_DATE_AND_TIME_ASSIGNMENT ( #215, #342, ( #129 ) ) ;
#56 = UNCERTAINTY_MEASURE_WITH_UNIT (LENGTH_MEASURE( 1.000000000000000082E-05 ), #104, 'distance_accuracy_value', 'NONE');
#57 = APPLICATION_PROTOCOL_DEFINITION ( 'international standard', 'config_control_design', 1994, #111 ) ;
#58 = PERSON_AND_ORGANIZATION ( #165, #320 ) ;
#59 = DIRECTION ( 'NONE',  ( -3.491481338843133355E-15, 1.224646799147353207E-16, -1.000000000000000000 ) ) ;
#60 = CARTESIAN_POINT ( 'NONE',  ( 0.0000000000000000000, 0.0000000000000000000, 0.0000000000000000000 ) ) ;
#61 = CARTESIAN_POINT ( 'NONE',  ( 1.326762908760390423E-13, -4.653657836759941941E-15, 38.00000000000000000 ) ) ;
#62 = ORIENTED_EDGE ( 'NONE', *, *, #234, .T. ) ;
#63 = DIRECTION ( 'NONE',  ( -4.275831445896958607E-31, -1.000000000000000000, -1.224646799147353207E-16 ) ) ;
#64 = CC_DESIGN_APPROVAL ( #73, ( #6 ) ) ;
#65 = EDGE_LOOP ( 'NONE', ( #307 ) ) ;
#66 = CARTESIAN_POINT ( 'NONE',  ( 3.281992458512545354E-14, 1.959999999999997744, 9.400000000000000355 ) ) ;
#67 = DIRECTION ( 'NONE',  ( -3.491481338843133355E-15, 1.224646799147353207E-16, -1.000000000000000000 ) ) ;
#68 = FACE_OUTER_BOUND ( 'NONE', #83, .T. ) ;
#69 = FACE_OUTER_BOUND ( 'NONE', #206, .T. ) ;
#70 = DIRECTION ( 'NONE',  ( 0.0000000000000000000, 1.000000000000000000, 0.0000000000000000000 ) ) ;
#71 = LOCAL_TIME ( 14, 55, 58.00000000000000000, #190 ) ;
#72 = FACE_OUTER_BOUND ( 'NONE', #322, .T. ) ;
#73 = APPROVAL ( #131, 'UNSPECIFIED' ) ;
#74 = CARTESIAN_POINT ( 'NONE',  ( 0.0000000000000000000, 0.0000000000000000000, 0.0000000000000000000 ) ) ;
#75 = EDGE_LOOP ( 'NONE', ( #163 ) ) ;
#76 = FACE_OUTER_BOUND ( 'NONE', #288, .T. ) ;
#77 = ADVANCED_FACE ( 'NONE', ( #299 ), #138, .F. ) ;
#78 = CYLINDRICAL_SURFACE ( 'NONE', #23, 1.999999999999995337 ) ;
#79 = ADVANCED_FACE ( 'NONE', ( #168, #269 ), #250, .T. ) ;
#80 = AXIS2_PLACEMENT_3D ( 'NONE', #15, #185, #107 ) ;
#81 = EDGE_LOOP ( 'NONE', ( #39 ) ) ;
#82 = COORDINATED_UNIVERSAL_TIME_OFFSET ( 1, 0, .AHEAD. ) ;
#83 = EDGE_LOOP ( 'NONE', ( #277 ) ) ;
#84 = CARTESIAN_POINT ( 'NONE',  ( 2.793185071074506684E-15, -9.797174393178826150E-17, 0.8000000000000000444 ) ) ;
#85 = EDGE_LOOP ( 'NONE', ( #319 ) ) ;
#86 = PERSON_AND_ORGANIZATION ( #165, #320 ) ;
#87 = CARTESIAN_POINT ( 'NONE',  ( 1.326762908760390423E-13, -4.653657836759941941E-15, 38.00000000000000000 ) ) ;
#88 = FACE_BOUND ( 'NONE', #85, .T. ) ;
#89 = MANIFOLD_SOLID_BREP ( 'Corps-Déplacer/Copier1[1]', #236 ) ;
#90 = PRODUCT_RELATED_PRODUCT_CATEGORY ( 'detail', '', ( #29 ) ) ;
#91 = DIRECTION ( 'NONE',  ( 0.0000000000000000000, 1.000000000000000000, 0.0000000000000000000 ) ) ;
#92 = FACE_OUTER_BOUND ( 'NONE', #81, .T. ) ;
#93 = EDGE_CURVE ( 'NONE', #176, #176, #95, .T. ) ;
#94 = EDGE_LOOP ( 'NONE', ( #62 ) ) ;
#95 = CIRCLE ( 'NONE', #160, 0.2499999999999998890 ) ;
#96 = ADVANCED_FACE ( 'NONE', ( #116, #68 ), #304, .F. ) ;
#97 = CARTESIAN_POINT ( 'NONE',  ( 5.900123977264070428E-15, 0.2989692899384945313, 1.689862669928809069 ) ) ;
#98 = DIRECTION ( 'NONE',  ( 0.0000000000000000000, 1.000000000000000000, 0.0000000000000000000 ) ) ;
#99 = PLANE ( 'NONE',  #328 ) ;
#100 = AXIS2_PLACEMENT_3D ( 'NONE', #103, #182, #262 ) ;
#101 = DIRECTION ( 'NONE',  ( -4.275831445896958607E-31, -1.000000000000000000, -1.224646799147353207E-16 ) ) ;
#102 =( GEOMETRIC_REPRESENTATION_CONTEXT ( 3 ) GLOBAL_UNCERTAINTY_ASSIGNED_CONTEXT ( ( #56 ) ) GLOBAL_UNIT_ASSIGNED_CONTEXT ( ( #104, #153, #287 ) ) REPRESENTATION_CONTEXT ( 'NONE', 'WORKASPACE' ) );
#103 = CARTESIAN_POINT ( 'NONE',  ( 3.281992458512545354E-14, -1.151167991198511931E-15, 9.400000000000000355 ) ) ;
#104 =( LENGTH_UNIT ( ) NAMED_UNIT ( * ) SI_UNIT ( .MILLI., .METRE. ) );
#105 = ADVANCED_FACE ( 'NONE', ( #92, #43 ), #257, .T. ) ;
#106 = CLOSED_SHELL ( 'NONE', ( #77, #105, #343 ) ) ;
#107 = DIRECTION ( 'NONE',  ( 4.275831445896958607E-31, 1.000000000000000000, 1.224646799147353207E-16 ) ) ;
#108 = DATE_AND_TIME ( #238, #155 ) ;
#109 = PERSON_AND_ORGANIZATION_ROLE ( 'creator' ) ;
#110 = DIRECTION ( 'NONE',  ( 3.491481338843133355E-15, -1.224646799147353207E-16, 1.000000000000000000 ) ) ;
#111 = APPLICATION_CONTEXT ( 'configuration controlled 3d designs of mechanical parts and assemblies' ) ;
#112 = DIRECTION ( 'NONE',  ( -3.491481338843133355E-15, 1.224646799147353207E-16, -1.000000000000000000 ) ) ;
#113 = ADVANCED_FACE ( 'NONE', ( #49, #239 ), #78, .T. ) ;
#114 = AXIS2_PLACEMENT_3D ( 'NONE', #156, #19, #233 ) ;
#115 = CARTESIAN_POINT ( 'NONE',  ( 2.793185071074506684E-15, 1.874699728327320299E-33, 0.8000000000000000444 ) ) ;
#116 = FACE_OUTER_BOUND ( 'NONE', #217, .T. ) ;
#117 = DIRECTION ( 'NONE',  ( -3.491481338843133355E-15, 1.224646799147353207E-16, -1.000000000000000000 ) ) ;
#118 = EDGE_CURVE ( 'NONE', #261, #261, #147, .T. ) ;
#119 = CARTESIAN_POINT ( 'NONE',  ( 2.137183397710480277E-32, 0.2499999999999998890, 6.121136532892404794E-18 ) ) ;
#120 = AXIS2_PLACEMENT_3D ( 'NONE', #115, #195, #326 ) ;
#121 = APPROVAL_PERSON_ORGANIZATION ( #240, #318, #290 ) ;
#122 = VERTEX_POINT ( 'NONE', #66 ) ;
#123 = EDGE_LOOP ( 'NONE', ( #48 ) ) ;
#124 = CARTESIAN_POINT ( 'NONE',  ( 2.793185071074506684E-15, 0.2499999999999998890, 0.8000000000000000444 ) ) ;
#125 = CARTESIAN_POINT ( 'NONE',  ( 3.281992458512545354E-14, 1.999999999999992228, 9.400000000000000355 ) ) ;
#126 = CIRCLE ( 'NONE', #100, 1.999999999999993561 ) ;
#127 = VERTEX_POINT ( 'NONE', #183 ) ;
#128 = COORDINATED_UNIVERSAL_TIME_OFFSET ( 1, 0, .AHEAD. ) ;
#129 = PRODUCT_DEFINITION ( 'UNKNOWN', '', #6, #219 ) ;
#130 = ORIENTED_EDGE ( 'NONE', *, *, #33, .T. ) ;
#131 = APPROVAL_STATUS ( 'not_yet_approved' ) ;
#132 = AXIS2_PLACEMENT_3D ( 'NONE', #306, #174, #276 ) ;
#133 = DIRECTION ( 'NONE',  ( 0.0000000000000000000, 1.000000000000000000, 0.0000000000000000000 ) ) ;
#134 = AXIS2_PLACEMENT_3D ( 'NONE', #251, #222, #300 ) ;
#135 = APPROVAL_DATE_TIME ( #108, #73 ) ;
#136 = DIRECTION ( 'NONE',  ( 0.0000000000000000000, 1.000000000000000000, 0.0000000000000000000 ) ) ;
#137 = COORDINATED_UNIVERSAL_TIME_OFFSET ( 1, 0, .AHEAD. ) ;
#138 = PLANE ( 'NONE',  #292 ) ;
#139 = CC_DESIGN_PERSON_AND_ORGANIZATION_ASSIGNMENT ( #5, #32, ( #212 ) ) ;
#140 = DIRECTION ( 'NONE',  ( -3.491481338843133355E-15, 1.224646799147353207E-16, -1.000000000000000000 ) ) ;
#141 = FACE_BOUND ( 'NONE', #223, .T. ) ;
#142 = APPROVAL_PERSON_ORGANIZATION ( #58, #18, #164 ) ;
#143 = CARTESIAN_POINT ( 'NONE',  ( -4.276197608515956341E-32, 1.499888215219790659E-33, -1.224751672289570653E-17 ) ) ;
#144 = DIRECTION ( 'NONE',  ( 4.275831445896958607E-31, 1.000000000000000000, 1.224646799147353207E-16 ) ) ;
#145 = EDGE_LOOP ( 'NONE', ( #273 ) ) ;
#146 = DIRECTION ( 'NONE',  ( 0.0000000000000000000, 1.000000000000000000, 0.0000000000000000000 ) ) ;
#147 = CIRCLE ( 'NONE', #52, 1.959999999999999520 ) ;
#148 = EDGE_LOOP ( 'NONE', ( #166 ) ) ;
#149 = CARTESIAN_POINT ( 'NONE',  ( 7.332110811570578468E-15, -2.571758278209440971E-16, 2.099999999999999645 ) ) ;
#150 = CARTESIAN_POINT ( 'NONE',  ( 2.793185071074506684E-15, 1.874699728327320299E-33, 0.8000000000000000444 ) ) ;
#151 = CC_DESIGN_DATE_AND_TIME_ASSIGNMENT ( #224, #243, ( #212 ) ) ;
#152 = ORIENTED_EDGE ( 'NONE', *, *, #93, .T. ) ;
#153 =( NAMED_UNIT ( * ) PLANE_ANGLE_UNIT ( ) SI_UNIT ( $, .RADIAN. ) );
#154 = PERSON_AND_ORGANIZATION ( #165, #320 ) ;
#155 = LOCAL_TIME ( 14, 55, 58.00000000000000000, #128 ) ;
#156 = CARTESIAN_POINT ( 'NONE',  ( 4.364351673553916694E-15, -1.530808498934191571E-16, 1.250000000000000000 ) ) ;
#157 = ADVANCED_FACE ( 'NONE', ( #267, #40 ), #245, .T. ) ;
#158 = CARTESIAN_POINT ( 'NONE',  ( 7.332110811570581624E-15, -2.571758278209441957E-16, 2.100000000000000089 ) ) ;
#159 = CALENDAR_DATE ( 2021, 13, 12 ) ;
#160 = AXIS2_PLACEMENT_3D ( 'NONE', #36, #309, #8 ) ;
#161 = LOCAL_TIME ( 14, 55, 58.00000000000000000, #82 ) ;
#162 = EDGE_CURVE ( 'NONE', #313, #313, #340, .T. ) ;
#163 = ORIENTED_EDGE ( 'NONE', *, *, #33, .F. ) ;
#164 = APPROVAL_ROLE ( '' ) ;
#165 = PERSON ( 'UNSPECIFIED', 'UNSPECIFIED', 'UNSPECIFIED', ('UNSPECIFIED'), ('UNSPECIFIED'), ('UNSPECIFIED') ) ;
#166 = ORIENTED_EDGE ( 'NONE', *, *, #118, .F. ) ;
#167 = LOCAL_TIME ( 14, 55, 58.00000000000000000, #137 ) ;
#168 = FACE_OUTER_BOUND ( 'NONE', #148, .T. ) ;
#169 = DIRECTION ( 'NONE',  ( 4.275831445896958607E-31, 1.000000000000000000, 1.224646799147353207E-16 ) ) ;
#170 = EDGE_LOOP ( 'NONE', ( #315 ) ) ;
#171 = SECURITY_CLASSIFICATION_LEVEL ( 'unclassified' ) ;
#172 = DIRECTION ( 'NONE',  ( -3.491481338843133355E-15, 1.224646799147353207E-16, -1.000000000000000000 ) ) ;
#173 = ORIENTED_EDGE ( 'NONE', *, *, #162, .T. ) ;
#174 = DIRECTION ( 'NONE',  ( 3.491481338843133355E-15, -1.224646799147353207E-16, 1.000000000000000000 ) ) ;
#175 = AXIS2_PLACEMENT_3D ( 'NONE', #60, #172, #271 ) ;
#176 = VERTEX_POINT ( 'NONE', #119 ) ;
#177 = FACE_BOUND ( 'NONE', #65, .T. ) ;
#178 = AXIS2_PLACEMENT_3D ( 'NONE', #279, #201, #302 ) ;
#179 = AXIS2_PLACEMENT_3D ( 'NONE', #193, #187, #321 ) ;
#180 = DIRECTION ( 'NONE',  ( 3.491481338843133355E-15, -1.224646799147353207E-16, 1.000000000000000000 ) ) ;
#181 = EDGE_LOOP ( 'NONE', ( #35 ) ) ;
#182 = DIRECTION ( 'NONE',  ( -3.491481338843133355E-15, 1.224646799147353207E-16, -1.000000000000000000 ) ) ;
#183 = CARTESIAN_POINT ( 'NONE',  ( 1.326762908760390423E-13, 1.599999999999991873, 38.00000000000000000 ) ) ;
#184 = EDGE_CURVE ( 'NONE', #42, #42, #203, .T. ) ;
#185 = DIRECTION ( 'NONE',  ( -3.491481338843133355E-15, 1.224646799147353207E-16, -1.000000000000000000 ) ) ;
#186 = AXIS2_PLACEMENT_3D ( 'NONE', #61, #204, #146 ) ;
#187 = DIRECTION ( 'NONE',  ( 0.0000000000000000000, 0.0000000000000000000, 1.000000000000000000 ) ) ;
#188 = CC_DESIGN_SECURITY_CLASSIFICATION ( #212, ( #6 ) ) ;
#189 = PRODUCT_DEFINITION_SHAPE ( 'NONE', 'NONE',  #129 ) ;
#190 = COORDINATED_UNIVERSAL_TIME_OFFSET ( 1, 0, .AHEAD. ) ;
#191 = ORIENTED_EDGE ( 'NONE', *, *, #184, .T. ) ;
#192 = CALENDAR_DATE ( 2021, 13, 12 ) ;
#193 = CARTESIAN_POINT ( 'NONE',  ( 0.0000000000000000000, 0.0000000000000000000, 0.0000000000000000000 ) ) ;
#194 = EDGE_CURVE ( 'NONE', #207, #207, #27, .T. ) ;
#195 = DIRECTION ( 'NONE',  ( 3.491481338843133355E-15, -1.224646799147353207E-16, 1.000000000000000000 ) ) ;
#196 = CC_DESIGN_PERSON_AND_ORGANIZATION_ASSIGNMENT ( #293, #53, ( #29 ) ) ;
#197 = CARTESIAN_POINT ( 'NONE',  ( 2.653552326032924641E-14, -9.307408652864167140E-16, 7.600075923396319766 ) ) ;
#198 = AXIS2_PLACEMENT_3D ( 'NONE', #308, #235, #254 ) ;
#199 = CONICAL_SURFACE ( 'NONE', #305, 1.959999999999999520, 0.2217440814658727943 ) ;
#200 = ADVANCED_FACE ( 'NONE', ( #202 ), #272, .F. ) ;
#201 = DIRECTION ( 'NONE',  ( -3.491481338843133355E-15, 1.224646799147353207E-16, -1.000000000000000000 ) ) ;
#202 = FACE_OUTER_BOUND ( 'NONE', #16, .T. ) ;
#203 = CIRCLE ( 'NONE', #253, 0.2989692899384947533 ) ;
#204 = DIRECTION ( 'NONE',  ( -3.491481338843133355E-15, 1.224646799147353207E-16, -1.000000000000000000 ) ) ;
#205 = CARTESIAN_POINT ( 'NONE',  ( 1.312796983405018142E-13, -4.604671964794046935E-15, 37.59999999999999432 ) ) ;
#206 = EDGE_LOOP ( 'NONE', ( #281 ) ) ;
#207 = VERTEX_POINT ( 'NONE', #282 ) ;
#208 = CC_DESIGN_PERSON_AND_ORGANIZATION_ASSIGNMENT ( #31, #249, ( #6 ) ) ;
#209 = MANIFOLD_SOLID_BREP ( 'Corps-Déplacer/Copier1[2]', #106 ) ;
#210 = DIRECTION ( 'NONE',  ( 3.491481338843133355E-15, -1.224646799147353207E-16, 1.000000000000000000 ) ) ;
#211 = AXIS2_PLACEMENT_3D ( 'NONE', #84, #220, #136 ) ;
#212 = SECURITY_CLASSIFICATION ( '', '', #171 ) ;
#213 = CARTESIAN_POINT ( 'NONE',  ( 2.653552326032924641E-14, 1.959999999999998632, 7.600075923396319766 ) ) ;
#214 = ORIENTED_EDGE ( 'NONE', *, *, #260, .T. ) ;
#215 = DATE_AND_TIME ( #159, #71 ) ;
#216 = AXIS2_PLACEMENT_3D ( 'NONE', #205, #67, #334 ) ;
#217 = EDGE_LOOP ( 'NONE', ( #191 ) ) ;
#218 = ADVANCED_FACE ( 'NONE', ( #88, #4 ), #330, .F. ) ;
#219 = DESIGN_CONTEXT ( 'detailed design', #111, 'design' ) ;
#220 = DIRECTION ( 'NONE',  ( -3.491481338843133355E-15, 1.224646799147353207E-16, -1.000000000000000000 ) ) ;
#221 = APPROVAL_DATE_TIME ( #248, #18 ) ;
#222 = DIRECTION ( 'NONE',  ( 3.491481338843133355E-15, -1.224646799147353207E-16, 1.000000000000000000 ) ) ;
#223 = EDGE_LOOP ( 'NONE', ( #41 ) ) ;
#224 = DATE_AND_TIME ( #247, #167 ) ;
#225 = DIRECTION ( 'NONE',  ( 0.0000000000000000000, 1.000000000000000000, 0.0000000000000000000 ) ) ;
#226 = PLANE ( 'NONE',  #132 ) ;
#227 = CARTESIAN_POINT ( 'NONE',  ( 1.312796983405018142E-13, 1.999999999999992228, 37.59999999999999432 ) ) ;
#228 = AXIS2_PLACEMENT_3D ( 'NONE', #34, #140, #274 ) ;
#229 = ADVANCED_BREP_SHAPE_REPRESENTATION ( '381930', ( #89, #209, #179 ), #102 ) ;
#230 = ORIENTED_EDGE ( 'NONE', *, *, #44, .T. ) ;
#231 = VERTEX_POINT ( 'NONE', #51 ) ;
#232 = VERTEX_POINT ( 'NONE', #237 ) ;
#233 = DIRECTION ( 'NONE',  ( 0.0000000000000000000, 1.000000000000000000, 0.0000000000000000000 ) ) ;
#234 = EDGE_CURVE ( 'NONE', #127, #127, #331, .T. ) ;
#235 = DIRECTION ( 'NONE',  ( -3.491481338843133355E-15, 1.224646799147353207E-16, -1.000000000000000000 ) ) ;
#236 = CLOSED_SHELL ( 'NONE', ( #200, #255, #96, #289, #9, #291, #79, #218, #113, #157, #283 ) ) ;
#237 = CARTESIAN_POINT ( 'NONE',  ( 7.332110811570578468E-15, 0.7199999999999997513, 2.099999999999999645 ) ) ;
#238 = CALENDAR_DATE ( 2021, 13, 12 ) ;
#239 = FACE_OUTER_BOUND ( 'NONE', #295, .T. ) ;
#240 = PERSON_AND_ORGANIZATION ( #165, #320 ) ;
#241 = AXIS2_PLACEMENT_3D ( 'NONE', #278, #180, #20 ) ;
#242 = MECHANICAL_CONTEXT ( 'NONE', #285, 'mechanical' ) ;
#243 = DATE_TIME_ROLE ( 'classification_date' ) ;
#244 = APPROVAL_STATUS ( 'not_yet_approved' ) ;
#245 = CONICAL_SURFACE ( 'NONE', #3, 1.599999999999996314, 0.7853981633974433940 ) ;
#246 = CARTESIAN_POINT ( 'NONE',  ( 5.900123977264070428E-15, -2.069484909726916183E-16, 1.689862669928809069 ) ) ;
#247 = CALENDAR_DATE ( 2021, 13, 12 ) ;
#248 = DATE_AND_TIME ( #192, #161 ) ;
#249 = PERSON_AND_ORGANIZATION_ROLE ( 'design_supplier' ) ;
#250 = CYLINDRICAL_SURFACE ( 'NONE', #175, 1.959999999999999076 ) ;
#251 = CARTESIAN_POINT ( 'NONE',  ( 3.281992458512545354E-14, 2.969524369670470729E-32, 9.400000000000000355 ) ) ;
#252 = ORIENTED_EDGE ( 'NONE', *, *, #194, .T. ) ;
#253 = AXIS2_PLACEMENT_3D ( 'NONE', #246, #38, #225 ) ;
#254 = DIRECTION ( 'NONE',  ( 4.275831445896958607E-31, 1.000000000000000000, 1.224646799147353207E-16 ) ) ;
#255 = ADVANCED_FACE ( 'NONE', ( #280, #72 ), #338, .T. ) ;
#256 = PLANE ( 'NONE',  #198 ) ;
#257 = CYLINDRICAL_SURFACE ( 'NONE', #80, 0.2499999999999999445 ) ;
#258 = DIRECTION ( 'NONE',  ( -3.491481338843133355E-15, 1.224646799147353207E-16, -1.000000000000000000 ) ) ;
#259 = DIRECTION ( 'NONE',  ( 0.0000000000000000000, -1.000000000000000000, 0.0000000000000000000 ) ) ;
#260 = EDGE_CURVE ( 'NONE', #232, #232, #316, .T. ) ;
#261 = VERTEX_POINT ( 'NONE', #213 ) ;
#262 = DIRECTION ( 'NONE',  ( 0.0000000000000000000, 1.000000000000000000, 0.0000000000000000000 ) ) ;
#263 = CIRCLE ( 'NONE', #275, 1.959999999999999076 ) ;
#264 = PERSON_AND_ORGANIZATION ( #165, #320 ) ;
#265 = CC_DESIGN_APPROVAL ( #18, ( #212 ) ) ;
#266 = AXIS2_PLACEMENT_3D ( 'NONE', #311, #284, #144 ) ;
#267 = FACE_OUTER_BOUND ( 'NONE', #75, .T. ) ;
#268 = EDGE_LOOP ( 'NONE', ( #214 ) ) ;
#269 = FACE_OUTER_BOUND ( 'NONE', #301, .T. ) ;
#270 = DIRECTION ( 'NONE',  ( 0.0000000000000000000, 1.000000000000000000, 0.0000000000000000000 ) ) ;
#271 = DIRECTION ( 'NONE',  ( 4.275831445896958607E-31, 1.000000000000000000, 1.224646799147353207E-16 ) ) ;
#272 = PLANE ( 'NONE',  #120 ) ;
#273 = ORIENTED_EDGE ( 'NONE', *, *, #234, .F. ) ;
#274 = DIRECTION ( 'NONE',  ( 0.0000000000000000000, 1.000000000000000000, 0.0000000000000000000 ) ) ;
#275 = AXIS2_PLACEMENT_3D ( 'NONE', #11, #117, #98 ) ;
#276 = DIRECTION ( 'NONE',  ( -4.275831445896958607E-31, -1.000000000000000000, -1.224646799147353207E-16 ) ) ;
#277 = ORIENTED_EDGE ( 'NONE', *, *, #24, .F. ) ;
#278 = CARTESIAN_POINT ( 'NONE',  ( 7.332110811570581624E-15, -2.571758278209441957E-16, 2.100000000000000089 ) ) ;
#279 = CARTESIAN_POINT ( 'NONE',  ( 4.364351673553916694E-15, 0.0000000000000000000, 1.250000000000000000 ) ) ;
#280 = FACE_OUTER_BOUND ( 'NONE', #170, .T. ) ;
#281 = ORIENTED_EDGE ( 'NONE', *, *, #162, .F. ) ;
#282 = CARTESIAN_POINT ( 'NONE',  ( 2.793185071074506684E-15, 0.2499999999999998890, 0.8000000000000000444 ) ) ;
#283 = ADVANCED_FACE ( 'NONE', ( #333 ), #256, .F. ) ;
#284 = DIRECTION ( 'NONE',  ( -3.491481338843133355E-15, 1.224646799147353207E-16, -1.000000000000000000 ) ) ;
#285 = APPLICATION_CONTEXT ( 'configuration controlled 3d designs of mechanical parts and assemblies' ) ;
#286 = EDGE_LOOP ( 'NONE', ( #45 ) ) ;
#287 =( NAMED_UNIT ( * ) SI_UNIT ( $, .STERADIAN. ) SOLID_ANGLE_UNIT ( ) );
#288 = EDGE_LOOP ( 'NONE', ( #324 ) ) ;
#289 = ADVANCED_FACE ( 'NONE', ( #13, #22 ), #47, .T. ) ;
#290 = APPROVAL_ROLE ( '' ) ;
#291 = ADVANCED_FACE ( 'NONE', ( #177, #76 ), #199, .T. ) ;
#292 = AXIS2_PLACEMENT_3D ( 'NONE', #143, #110, #63 ) ;
#293 = PERSON_AND_ORGANIZATION ( #165, #320 ) ;
#294 = CC_DESIGN_PERSON_AND_ORGANIZATION_ASSIGNMENT ( #86, #10, ( #6 ) ) ;
#295 = EDGE_LOOP ( 'NONE', ( #130 ) ) ;
#296 = SHAPE_DEFINITION_REPRESENTATION ( #189, #229 ) ;
#297 = EDGE_LOOP ( 'NONE', ( #173 ) ) ;
#298 = CIRCLE ( 'NONE', #216, 1.999999999999997113 ) ;
#299 = FACE_OUTER_BOUND ( 'NONE', #50, .T. ) ;
#300 = DIRECTION ( 'NONE',  ( -4.275831445896958607E-31, -1.000000000000000000, -1.224646799147353207E-16 ) ) ;
#301 = EDGE_LOOP ( 'NONE', ( #30 ) ) ;
#302 = DIRECTION ( 'NONE',  ( 4.338314491551686298E-31, 1.000000000000000000, 1.224646799147353207E-16 ) ) ;
#303 = DIRECTION ( 'NONE',  ( -3.491481338843133355E-15, 1.224646799147353207E-16, -1.000000000000000000 ) ) ;
#304 = TOROIDAL_SURFACE ( 'NONE', #178, 2.250000000000000000, 2.000000000000000000 ) ;
#305 = AXIS2_PLACEMENT_3D ( 'NONE', #335, #310, #259 ) ;
#306 = CARTESIAN_POINT ( 'NONE',  ( 7.332110811570580046E-15, 5.543687027504550250E-15, 2.100000000000000089 ) ) ;
#307 = ORIENTED_EDGE ( 'NONE', *, *, #260, .F. ) ;
#308 = CARTESIAN_POINT ( 'NONE',  ( 1.326762908760390423E-13, 1.199807826129476644E-32, 38.00000000000000000 ) ) ;
#309 = DIRECTION ( 'NONE',  ( -3.491481338843133355E-15, 1.224646799147353207E-16, -1.000000000000000000 ) ) ;
#310 = DIRECTION ( 'NONE',  ( 3.491481338843133355E-15, -1.224646799147353207E-16, 1.000000000000000000 ) ) ;
#311 = CARTESIAN_POINT ( 'NONE',  ( 0.0000000000000000000, 0.0000000000000000000, 0.0000000000000000000 ) ) ;
#312 = CIRCLE ( 'NONE', #336, 0.3914353388388223665 ) ;
#313 = VERTEX_POINT ( 'NONE', #124 ) ;
#314 = ORIENTED_EDGE ( 'NONE', *, *, #24, .T. ) ;
#315 = ORIENTED_EDGE ( 'NONE', *, *, #194, .F. ) ;
#316 = CIRCLE ( 'NONE', #14, 0.7199999999999999734 ) ;
#317 = DATE_AND_TIME ( #2, #341 ) ;
#318 = APPROVAL ( #244, 'UNSPECIFIED' ) ;
#319 = ORIENTED_EDGE ( 'NONE', *, *, #21, .F. ) ;
#320 = ORGANIZATION ( 'UNSPECIFIED', 'UNSPECIFIED', '' ) ;
#321 = DIRECTION ( 'NONE',  ( 1.000000000000000000, 0.0000000000000000000, 0.0000000000000000000 ) ) ;
#322 = EDGE_LOOP ( 'NONE', ( #314 ) ) ;
#323 = DIRECTION ( 'NONE',  ( -3.491481338843133355E-15, 1.224646799147353207E-16, -1.000000000000000000 ) ) ;
#324 = ORIENTED_EDGE ( 'NONE', *, *, #118, .T. ) ;
#325 = APPROVAL_STATUS ( 'not_yet_approved' ) ;
#326 = DIRECTION ( 'NONE',  ( -4.275831445896958607E-31, -1.000000000000000000, -1.224646799147353207E-16 ) ) ;
#327 = CC_DESIGN_PERSON_AND_ORGANIZATION_ASSIGNMENT ( #154, #109, ( #129 ) ) ;
#328 = AXIS2_PLACEMENT_3D ( 'NONE', #150, #210, #101 ) ;
#329 = CIRCLE ( 'NONE', #114, 0.2500000000000000555 ) ;
#330 = PLANE ( 'NONE',  #134 ) ;
#331 = CIRCLE ( 'NONE', #186, 1.599999999999996314 ) ;
#332 = VERTEX_POINT ( 'NONE', #125 ) ;
#333 = FACE_OUTER_BOUND ( 'NONE', #145, .T. ) ;
#334 = DIRECTION ( 'NONE',  ( 0.0000000000000000000, 1.000000000000000000, 0.0000000000000000000 ) ) ;
#335 = CARTESIAN_POINT ( 'NONE',  ( 2.653552326032924641E-14, -9.307408652864167140E-16, 7.600075923396319766 ) ) ;
#336 = AXIS2_PLACEMENT_3D ( 'NONE', #158, #303, #133 ) ;
#337 = CC_DESIGN_APPROVAL ( #318, ( #129 ) ) ;
#338 = CYLINDRICAL_SURFACE ( 'NONE', #266, 0.2500000000000000000 ) ;
#339 = COORDINATED_UNIVERSAL_TIME_OFFSET ( 1, 0, .AHEAD. ) ;
#340 = CIRCLE ( 'NONE', #228, 0.2500000000000000000 ) ;
#341 = LOCAL_TIME ( 14, 55, 58.00000000000000000, #339 ) ;
#342 = DATE_TIME_ROLE ( 'creation_date' ) ;
#343 = ADVANCED_FACE ( 'NONE', ( #69 ), #99, .T. ) ;
ENDSEC;
END-ISO-10303-21;
