ISO-10303-21;
HEADER;
FILE_DESCRIPTION (( 'STEP AP203' ),
    '1' );
FILE_NAME ('381929.step',
    '2021-12-13T13:55:57',
    ( '' ),
    ( '' ),
    'SwSTEP 2.0',
    'SolidWorks 2019',
    '' );
FILE_SCHEMA (( 'CONFIG_CONTROL_DESIGN' ));
ENDSEC;

DATA;
#1 = LOCAL_TIME ( 14, 55, 57.00000000000000000, #60 ) ;
#2 = DIRECTION ( 'NONE',  ( 1.000000000000000000, 0.0000000000000000000, 0.0000000000000000000 ) ) ;
#3 = CC_DESIGN_PERSON_AND_ORGANIZATION_ASSIGNMENT ( #270, #32, ( #78 ) ) ;
#4 = FACE_OUTER_BOUND ( 'NONE', #79, .T. ) ;
#5 = EDGE_CURVE ( 'NONE', #240, #240, #275, .T. ) ;
#6 = CALENDAR_DATE ( 2021, 13, 12 ) ;
#7 = AXIS2_PLACEMENT_3D ( 'NONE', #143, #113, #244 ) ;
#8 = CARTESIAN_POINT ( 'NONE',  ( 1.326762908760390423E-13, 1.199807826129476644E-32, 38.00000000000000000 ) ) ;
#9 = CARTESIAN_POINT ( 'NONE',  ( -3.207239747041717346E-32, 1.124948269554326599E-33, -9.185899725027325669E-18 ) ) ;
#10 = COORDINATED_UNIVERSAL_TIME_OFFSET ( 1, 0, .AHEAD. ) ;
#11 = ORIENTED_EDGE ( 'NONE', *, *, #315, .T. ) ;
#12 = AXIS2_PLACEMENT_3D ( 'NONE', #324, #173, #269 ) ;
#13 = ORIENTED_EDGE ( 'NONE', *, *, #154, .F. ) ;
#14 = ORIENTED_EDGE ( 'NONE', *, *, #222, .T. ) ;
#15 = CARTESIAN_POINT ( 'NONE',  ( 3.281992458512545354E-14, 2.969524369670470729E-32, 9.400000000000000355 ) ) ;
#16 = CARTESIAN_POINT ( 'NONE',  ( 7.332110811570581624E-15, -2.571758278209441957E-16, 2.100000000000000089 ) ) ;
#17 = FACE_OUTER_BOUND ( 'NONE', #71, .T. ) ;
#18 = EDGE_CURVE ( 'NONE', #82, #82, #136, .T. ) ;
#19 = DIRECTION ( 'NONE',  ( -3.491481338843133355E-15, 1.224646799147353207E-16, -1.000000000000000000 ) ) ;
#20 = FACE_BOUND ( 'NONE', #229, .T. ) ;
#21 = VERTEX_POINT ( 'NONE', #137 ) ;
#22 = VERTEX_POINT ( 'NONE', #239 ) ;
#23 = CC_DESIGN_APPROVAL ( #253, ( #78 ) ) ;
#24 =( LENGTH_UNIT ( ) NAMED_UNIT ( * ) SI_UNIT ( .MILLI., .METRE. ) );
#25 = ADVANCED_FACE ( 'NONE', ( #202, #98 ), #43, .F. ) ;
#26 = DIRECTION ( 'NONE',  ( -3.491481338843133355E-15, 1.224646799147353207E-16, -1.000000000000000000 ) ) ;
#27 = ORIENTED_EDGE ( 'NONE', *, *, #18, .T. ) ;
#28 = MANIFOLD_SOLID_BREP ( 'Corps-Déplacer/Copier1[1]', #124 ) ;
#29 = COORDINATED_UNIVERSAL_TIME_OFFSET ( 1, 0, .AHEAD. ) ;
#30 = DIRECTION ( 'NONE',  ( 0.0000000000000000000, 1.000000000000000000, 0.0000000000000000000 ) ) ;
#31 = AXIS2_PLACEMENT_3D ( 'NONE', #342, #104, #258 ) ;
#32 = PERSON_AND_ORGANIZATION_ROLE ( 'classification_officer' ) ;
#33 = EDGE_CURVE ( 'NONE', #262, #262, #195, .T. ) ;
#34 = FACE_OUTER_BOUND ( 'NONE', #145, .T. ) ;
#35 = PERSON_AND_ORGANIZATION ( #179, #51 ) ;
#36 = ORIENTED_EDGE ( 'NONE', *, *, #111, .F. ) ;
#37 = EDGE_LOOP ( 'NONE', ( #13 ) ) ;
#38 = DIRECTION ( 'NONE',  ( -3.491481338843133355E-15, 1.224646799147353207E-16, -1.000000000000000000 ) ) ;
#39 = CIRCLE ( 'NONE', #251, 1.999999999999997113 ) ;
#40 = CARTESIAN_POINT ( 'NONE',  ( 4.943320916078145528E-15, -1.733883572477902657E-16, 1.415823381635505029 ) ) ;
#41 = DIRECTION ( 'NONE',  ( -3.491481338843133355E-15, 1.224646799147353207E-16, -1.000000000000000000 ) ) ;
#42 = DIRECTION ( 'NONE',  ( 0.0000000000000000000, 1.000000000000000000, 0.0000000000000000000 ) ) ;
#43 = TOROIDAL_SURFACE ( 'NONE', #12, 2.200000000000000178, 2.000000000000000000 ) ;
#44 = LOCAL_TIME ( 14, 55, 57.00000000000000000, #10 ) ;
#45 = PRODUCT ( '381929', '381929', '', ( #114 ) ) ;
#46 = CARTESIAN_POINT ( 'NONE',  ( 0.0000000000000000000, 0.0000000000000000000, 0.0000000000000000000 ) ) ;
#47 = EDGE_LOOP ( 'NONE', ( #194 ) ) ;
#48 = DIRECTION ( 'NONE',  ( -3.491481338843133355E-15, 1.224646799147353207E-16, -1.000000000000000000 ) ) ;
#49 = DIRECTION ( 'NONE',  ( -4.275831445896958607E-31, -1.000000000000000000, -1.224646799147353207E-16 ) ) ;
#50 = AXIS2_PLACEMENT_3D ( 'NONE', #235, #283, #233 ) ;
#51 = ORGANIZATION ( 'UNSPECIFIED', 'UNSPECIFIED', '' ) ;
#52 = DIRECTION ( 'NONE',  ( 4.275831445896958607E-31, 1.000000000000000000, 1.224646799147353207E-16 ) ) ;
#53 = VERTEX_POINT ( 'NONE', #213 ) ;
#54 = APPLICATION_PROTOCOL_DEFINITION ( 'international standard', 'config_control_design', 1994, #286 ) ;
#55 = EDGE_CURVE ( 'NONE', #22, #22, #57, .T. ) ;
#56 = EDGE_LOOP ( 'NONE', ( #273 ) ) ;
#57 = CIRCLE ( 'NONE', #242, 0.2000000000000000666 ) ;
#58 = AXIS2_PLACEMENT_3D ( 'NONE', #205, #48, #308 ) ;
#59 = EDGE_LOOP ( 'NONE', ( #250 ) ) ;
#60 = COORDINATED_UNIVERSAL_TIME_OFFSET ( 1, 0, .AHEAD. ) ;
#61 = ADVANCED_FACE ( 'NONE', ( #34 ), #125, .F. ) ;
#62 = APPROVAL_ROLE ( '' ) ;
#63 = DIRECTION ( 'NONE',  ( -3.491481338843133355E-15, 1.224646799147353207E-16, -1.000000000000000000 ) ) ;
#64 = PERSON_AND_ORGANIZATION ( #179, #51 ) ;
#65 = AXIS2_PLACEMENT_3D ( 'NONE', #183, #41, #52 ) ;
#66 = ORIENTED_EDGE ( 'NONE', *, *, #84, .F. ) ;
#67 = CC_DESIGN_PERSON_AND_ORGANIZATION_ASSIGNMENT ( #220, #323, ( #149 ) ) ;
#68 = DIRECTION ( 'NONE',  ( 0.0000000000000000000, 1.000000000000000000, 0.0000000000000000000 ) ) ;
#69 = DESIGN_CONTEXT ( 'detailed design', #109, 'design' ) ;
#70 = PERSON_AND_ORGANIZATION_ROLE ( 'creator' ) ;
#71 = EDGE_LOOP ( 'NONE', ( #14 ) ) ;
#72 = ADVANCED_FACE ( 'NONE', ( #225 ), #221, .T. ) ;
#73 = AXIS2_PLACEMENT_3D ( 'NONE', #299, #175, #249 ) ;
#74 = DIRECTION ( 'NONE',  ( 0.0000000000000000000, 1.000000000000000000, 0.0000000000000000000 ) ) ;
#75 = DIRECTION ( 'NONE',  ( 4.275831445896958607E-31, 1.000000000000000000, 1.224646799147353207E-16 ) ) ;
#76 = PLANE ( 'NONE',  #165 ) ;
#77 = FACE_OUTER_BOUND ( 'NONE', #219, .T. ) ;
#78 = SECURITY_CLASSIFICATION ( '', '', #174 ) ;
#79 = EDGE_LOOP ( 'NONE', ( #216 ) ) ;
#80 = DIRECTION ( 'NONE',  ( 0.0000000000000000000, 1.000000000000000000, 0.0000000000000000000 ) ) ;
#81 = PRODUCT_DEFINITION_SHAPE ( 'NONE', 'NONE',  #327 ) ;
#82 = VERTEX_POINT ( 'NONE', #261 ) ;
#83 = CARTESIAN_POINT ( 'NONE',  ( 7.332110811570580046E-15, 5.505078458564189721E-15, 2.100000000000000089 ) ) ;
#84 = EDGE_CURVE ( 'NONE', #21, #21, #93, .T. ) ;
#85 = DIRECTION ( 'NONE',  ( 0.0000000000000000000, 0.0000000000000000000, 1.000000000000000000 ) ) ;
#86 =( NAMED_UNIT ( * ) PLANE_ANGLE_UNIT ( ) SI_UNIT ( $, .RADIAN. ) );
#87 = CIRCLE ( 'NONE', #320, 0.3891310281069610966 ) ;
#88 = AXIS2_PLACEMENT_3D ( 'NONE', #307, #231, #75 ) ;
#89 = DATE_AND_TIME ( #321, #44 ) ;
#90 = EDGE_LOOP ( 'NONE', ( #223 ) ) ;
#91 = PERSON_AND_ORGANIZATION_ROLE ( 'design_supplier' ) ;
#92 = CARTESIAN_POINT ( 'NONE',  ( 2.094888803305879619E-15, 1.499759782661856410E-33, 0.5999999999999999778 ) ) ;
#93 = CIRCLE ( 'NONE', #189, 0.7199999999999999734 ) ;
#94 = AXIS2_PLACEMENT_3D ( 'NONE', #8, #120, #303 ) ;
#95 = DIRECTION ( 'NONE',  ( 3.491481338843133355E-15, -1.224646799147353207E-16, 1.000000000000000000 ) ) ;
#96 = PERSON_AND_ORGANIZATION_ROLE ( 'design_owner' ) ;
#97 = ADVANCED_FACE ( 'NONE', ( #151 ), #248, .F. ) ;
#98 = FACE_OUTER_BOUND ( 'NONE', #199, .T. ) ;
#99 = ORIENTED_EDGE ( 'NONE', *, *, #55, .F. ) ;
#100 = AXIS2_PLACEMENT_3D ( 'NONE', #92, #95, #197 ) ;
#101 = DIRECTION ( 'NONE',  ( 4.275831445896958607E-31, 1.000000000000000000, 1.224646799147353207E-16 ) ) ;
#102 = AXIS2_PLACEMENT_3D ( 'NONE', #117, #26, #188 ) ;
#103 = ADVANCED_FACE ( 'NONE', ( #338, #163 ), #182, .T. ) ;
#104 = DIRECTION ( 'NONE',  ( 3.491481338843133355E-15, -1.224646799147353207E-16, 1.000000000000000000 ) ) ;
#105 = DIRECTION ( 'NONE',  ( -4.275831445896958607E-31, -1.000000000000000000, -1.224646799147353207E-16 ) ) ;
#106 = CC_DESIGN_DATE_AND_TIME_ASSIGNMENT ( #118, #218, ( #327 ) ) ;
#107 = CYLINDRICAL_SURFACE ( 'NONE', #88, 1.959999999999999076 ) ;
#108 = AXIS2_PLACEMENT_3D ( 'NONE', #9, #121, #105 ) ;
#109 = APPLICATION_CONTEXT ( 'configuration controlled 3d designs of mechanical parts and assemblies' ) ;
#110 = VERTEX_POINT ( 'NONE', #263 ) ;
#111 = EDGE_CURVE ( 'NONE', #170, #170, #87, .T. ) ;
#112 = CC_DESIGN_PERSON_AND_ORGANIZATION_ASSIGNMENT ( #64, #91, ( #149 ) ) ;
#113 = DIRECTION ( 'NONE',  ( 3.491481338843133355E-15, -1.224646799147353207E-16, 1.000000000000000000 ) ) ;
#114 = MECHANICAL_CONTEXT ( 'NONE', #286, 'mechanical' ) ;
#115 = ADVANCED_FACE ( 'NONE', ( #184, #337 ), #305, .T. ) ;
#116 = PLANE ( 'NONE',  #232 ) ;
#117 = CARTESIAN_POINT ( 'NONE',  ( 3.281992458512545354E-14, -1.151167991198511931E-15, 9.400000000000000355 ) ) ;
#118 = DATE_AND_TIME ( #156, #1 ) ;
#119 = EDGE_LOOP ( 'NONE', ( #267 ) ) ;
#120 = DIRECTION ( 'NONE',  ( -3.491481338843133355E-15, 1.224646799147353207E-16, -1.000000000000000000 ) ) ;
#121 = DIRECTION ( 'NONE',  ( 3.491481338843133355E-15, -1.224646799147353207E-16, 1.000000000000000000 ) ) ;
#122 = APPROVAL_ROLE ( '' ) ;
#123 = CARTESIAN_POINT ( 'NONE',  ( 3.491481338843133355E-15, -1.224646799147353207E-16, 1.000000000000000000 ) ) ;
#124 = CLOSED_SHELL ( 'NONE', ( #300, #166, #25, #139, #343, #130, #278, #234, #103, #115, #61 ) ) ;
#125 = PLANE ( 'NONE',  #94 ) ;
#126 = CC_DESIGN_DATE_AND_TIME_ASSIGNMENT ( #176, #272, ( #78 ) ) ;
#127 = EDGE_LOOP ( 'NONE', ( #268 ) ) ;
#128 = DATE_AND_TIME ( #311, #330 ) ;
#129 = FACE_OUTER_BOUND ( 'NONE', #177, .T. ) ;
#130 = ADVANCED_FACE ( 'NONE', ( #20, #304 ), #148, .T. ) ;
#131 = DIRECTION ( 'NONE',  ( -3.491481338843133355E-15, 1.224646799147353207E-16, -1.000000000000000000 ) ) ;
#132 = DIRECTION ( 'NONE',  ( -4.275831445896958607E-31, -1.000000000000000000, -1.224646799147353207E-16 ) ) ;
#133 = APPROVAL_DATE_TIME ( #128, #253 ) ;
#134 = FACE_BOUND ( 'NONE', #292, .T. ) ;
#135 = DIRECTION ( 'NONE',  ( -3.491481338843133355E-15, 1.224646799147353207E-16, -1.000000000000000000 ) ) ;
#136 = CIRCLE ( 'NONE', #73, 0.1999999999999999278 ) ;
#137 = CARTESIAN_POINT ( 'NONE',  ( 7.332110811570578468E-15, 0.7199999999999997513, 2.099999999999999645 ) ) ;
#138 = VERTEX_POINT ( 'NONE', #215 ) ;
#139 = ADVANCED_FACE ( 'NONE', ( #238, #208 ), #214, .T. ) ;
#140 = CARTESIAN_POINT ( 'NONE',  ( 0.0000000000000000000, 0.0000000000000000000, 0.0000000000000000000 ) ) ;
#141 = AXIS2_PLACEMENT_3D ( 'NONE', #40, #135, #42 ) ;
#142 = LOCAL_TIME ( 14, 55, 57.00000000000000000, #29 ) ;
#143 = CARTESIAN_POINT ( 'NONE',  ( 2.094888803305879619E-15, 1.499759782661856410E-33, 0.5999999999999999778 ) ) ;
#144 = CARTESIAN_POINT ( 'NONE',  ( 1.326762908760390423E-13, 1.599999999999991873, 38.00000000000000000 ) ) ;
#145 = EDGE_LOOP ( 'NONE', ( #335 ) ) ;
#146 = APPROVAL_ROLE ( '' ) ;
#147 = DIRECTION ( 'NONE',  ( -3.491481338843133355E-15, 1.224646799147353207E-16, -1.000000000000000000 ) ) ;
#148 = CONICAL_SURFACE ( 'NONE', #31, 1.959999999999998632, 0.2094395102393127039 ) ;
#149 = PRODUCT_DEFINITION_FORMATION_WITH_SPECIFIED_SOURCE ( 'ANY', '', #45, .NOT_KNOWN. ) ;
#150 = COORDINATED_UNIVERSAL_TIME_OFFSET ( 1, 0, .AHEAD. ) ;
#151 = FACE_OUTER_BOUND ( 'NONE', #153, .T. ) ;
#152 = APPROVAL_STATUS ( 'not_yet_approved' ) ;
#153 = EDGE_LOOP ( 'NONE', ( #27 ) ) ;
#154 = EDGE_CURVE ( 'NONE', #53, #53, #306, .T. ) ;
#155 = ORIENTED_EDGE ( 'NONE', *, *, #315, .F. ) ;
#156 = CALENDAR_DATE ( 2021, 13, 12 ) ;
#157 = EDGE_LOOP ( 'NONE', ( #326 ) ) ;
#158 = MANIFOLD_SOLID_BREP ( 'Corps-Déplacer/Copier1[2]', #206 ) ;
#159 = DIRECTION ( 'NONE',  ( 0.0000000000000000000, 1.000000000000000000, 0.0000000000000000000 ) ) ;
#160 = DIRECTION ( 'NONE',  ( -3.491481338843133355E-15, 1.224646799147353207E-16, -1.000000000000000000 ) ) ;
#161 = AXIS2_PLACEMENT_3D ( 'NONE', #277, #256, #254 ) ;
#162 = CARTESIAN_POINT ( 'NONE',  ( 3.281992458512545354E-14, -1.151167991198511931E-15, 9.400000000000000355 ) ) ;
#163 = FACE_OUTER_BOUND ( 'NONE', #181, .T. ) ;
#164 = ADVANCED_BREP_SHAPE_REPRESENTATION ( '381929', ( #28, #158, #276 ), #285 ) ;
#165 = AXIS2_PLACEMENT_3D ( 'NONE', #15, #257, #132 ) ;
#166 = ADVANCED_FACE ( 'NONE', ( #77, #312 ), #236, .T. ) ;
#167 = FACE_OUTER_BOUND ( 'NONE', #204, .T. ) ;
#168 = CARTESIAN_POINT ( 'NONE',  ( 3.281992458512545354E-14, 1.999999999999992228, 9.400000000000000355 ) ) ;
#169 = CC_DESIGN_PERSON_AND_ORGANIZATION_ASSIGNMENT ( #180, #70, ( #327 ) ) ;
#170 = VERTEX_POINT ( 'NONE', #265 ) ;
#171 = PERSON_AND_ORGANIZATION ( #179, #51 ) ;
#172 = EDGE_CURVE ( 'NONE', #212, #212, #39, .T. ) ;
#173 = DIRECTION ( 'NONE',  ( -3.491481338843133355E-15, 1.224646799147353207E-16, -1.000000000000000000 ) ) ;
#174 = SECURITY_CLASSIFICATION_LEVEL ( 'unclassified' ) ;
#175 = DIRECTION ( 'NONE',  ( -3.491481338843133355E-15, 1.224646799147353207E-16, -1.000000000000000000 ) ) ;
#176 = DATE_AND_TIME ( #201, #316 ) ;
#177 = EDGE_LOOP ( 'NONE', ( #11 ) ) ;
#178 = ORIENTED_EDGE ( 'NONE', *, *, #172, .T. ) ;
#179 = PERSON ( 'UNSPECIFIED', 'UNSPECIFIED', 'UNSPECIFIED', ('UNSPECIFIED'), ('UNSPECIFIED'), ('UNSPECIFIED') ) ;
#180 = PERSON_AND_ORGANIZATION ( #179, #51 ) ;
#181 = EDGE_LOOP ( 'NONE', ( #178 ) ) ;
#182 = CYLINDRICAL_SURFACE ( 'NONE', #259, 1.999999999999995337 ) ;
#183 = CARTESIAN_POINT ( 'NONE',  ( 0.0000000000000000000, 0.0000000000000000000, 0.0000000000000000000 ) ) ;
#184 = FACE_OUTER_BOUND ( 'NONE', #252, .T. ) ;
#185 = CARTESIAN_POINT ( 'NONE',  ( 1.312796983405018142E-13, -4.604671964794046935E-15, 37.59999999999999432 ) ) ;
#186 = ORIENTED_EDGE ( 'NONE', *, *, #172, .F. ) ;
#187 = CYLINDRICAL_SURFACE ( 'NONE', #65, 0.1999999999999999833 ) ;
#188 = DIRECTION ( 'NONE',  ( 0.0000000000000000000, 1.000000000000000000, 0.0000000000000000000 ) ) ;
#189 = AXIS2_PLACEMENT_3D ( 'NONE', #297, #63, #68 ) ;
#190 = APPROVAL_PERSON_ORGANIZATION ( #203, #230, #146 ) ;
#191 = CARTESIAN_POINT ( 'NONE',  ( 2.770050982099165276E-14, 1.959999999999997744, 7.933741335753474289 ) ) ;
#192 = EDGE_LOOP ( 'NONE', ( #319 ) ) ;
#193 = DIRECTION ( 'NONE',  ( 3.491481338843133355E-15, -1.224646799147353207E-16, 1.000000000000000000 ) ) ;
#194 = ORIENTED_EDGE ( 'NONE', *, *, #5, .F. ) ;
#195 = CIRCLE ( 'NONE', #210, 1.599999999999996314 ) ;
#196 = ORIENTED_EDGE ( 'NONE', *, *, #222, .F. ) ;
#197 = DIRECTION ( 'NONE',  ( -4.275831445896958607E-31, -1.000000000000000000, -1.224646799147353207E-16 ) ) ;
#198 = PERSON_AND_ORGANIZATION ( #179, #51 ) ;
#199 = EDGE_LOOP ( 'NONE', ( #99 ) ) ;
#200 = CIRCLE ( 'NONE', #291, 0.2000000000000000111 ) ;
#201 = CALENDAR_DATE ( 2021, 13, 12 ) ;
#202 = FACE_OUTER_BOUND ( 'NONE', #90, .T. ) ;
#203 = PERSON_AND_ORGANIZATION ( #179, #51 ) ;
#204 = EDGE_LOOP ( 'NONE', ( #290 ) ) ;
#205 = CARTESIAN_POINT ( 'NONE',  ( 0.0000000000000000000, 0.0000000000000000000, 0.0000000000000000000 ) ) ;
#206 = CLOSED_SHELL ( 'NONE', ( #97, #287, #72 ) ) ;
#207 = FACE_OUTER_BOUND ( 'NONE', #119, .T. ) ;
#208 = FACE_OUTER_BOUND ( 'NONE', #192, .T. ) ;
#209 = DIRECTION ( 'NONE',  ( 3.491481338843133355E-15, -1.224646799147353207E-16, 1.000000000000000000 ) ) ;
#210 = AXIS2_PLACEMENT_3D ( 'NONE', #329, #147, #301 ) ;
#211 = CARTESIAN_POINT ( 'NONE',  ( 2.094888803305879619E-15, -7.347880794884117764E-17, 0.5999999999999999778 ) ) ;
#212 = VERTEX_POINT ( 'NONE', #245 ) ;
#213 = CARTESIAN_POINT ( 'NONE',  ( 4.943320916078145528E-15, 0.2437047985323859689, 1.415823381635505029 ) ) ;
#214 = CONICAL_SURFACE ( 'NONE', #322, 0.3891310281069610966, 0.2094395102393124819 ) ;
#215 = CARTESIAN_POINT ( 'NONE',  ( 2.094888803305879619E-15, 0.1999999999999999278, 0.5999999999999999778 ) ) ;
#216 = ORIENTED_EDGE ( 'NONE', *, *, #228, .T. ) ;
#217 = PRODUCT_RELATED_PRODUCT_CATEGORY ( 'detail', '', ( #45 ) ) ;
#218 = DATE_TIME_ROLE ( 'creation_date' ) ;
#219 = EDGE_LOOP ( 'NONE', ( #246 ) ) ;
#220 = PERSON_AND_ORGANIZATION ( #179, #51 ) ;
#221 = PLANE ( 'NONE',  #100 ) ;
#222 = EDGE_CURVE ( 'NONE', #317, #317, #260, .T. ) ;
#223 = ORIENTED_EDGE ( 'NONE', *, *, #154, .T. ) ;
#224 = COORDINATED_UNIVERSAL_TIME_OFFSET ( 1, 0, .AHEAD. ) ;
#225 = FACE_OUTER_BOUND ( 'NONE', #340, .T. ) ;
#226 = CC_DESIGN_SECURITY_CLASSIFICATION ( #78, ( #149 ) ) ;
#227 = EDGE_LOOP ( 'NONE', ( #36 ) ) ;
#228 = EDGE_CURVE ( 'NONE', #138, #138, #281, .T. ) ;
#229 = EDGE_LOOP ( 'NONE', ( #66 ) ) ;
#230 = APPROVAL ( #295, 'UNSPECIFIED' ) ;
#231 = DIRECTION ( 'NONE',  ( -3.491481338843133355E-15, 1.224646799147353207E-16, -1.000000000000000000 ) ) ;
#232 = AXIS2_PLACEMENT_3D ( 'NONE', #83, #193, #49 ) ;
#233 = DIRECTION ( 'NONE',  ( 0.0000000000000000000, 1.000000000000000000, 0.0000000000000000000 ) ) ;
#234 = ADVANCED_FACE ( 'NONE', ( #134, #17 ), #76, .F. ) ;
#235 = CARTESIAN_POINT ( 'NONE',  ( 1.326762908760390423E-13, -4.653657836759941941E-15, 38.00000000000000000 ) ) ;
#236 = CYLINDRICAL_SURFACE ( 'NONE', #58, 0.2000000000000000389 ) ;
#237 = CIRCLE ( 'NONE', #102, 1.959999999999999076 ) ;
#238 = FACE_BOUND ( 'NONE', #37, .T. ) ;
#239 = CARTESIAN_POINT ( 'NONE',  ( 3.491481338843133355E-15, 0.1999999999999999278, 1.000000000000000000 ) ) ;
#240 = VERTEX_POINT ( 'NONE', #191 ) ;
#241 = PLANE ( 'NONE',  #7 ) ;
#242 = AXIS2_PLACEMENT_3D ( 'NONE', #123, #271, #30 ) ;
#243 = APPROVAL_PERSON_ORGANIZATION ( #35, #253, #122 ) ;
#244 = DIRECTION ( 'NONE',  ( -4.275831445896958607E-31, -1.000000000000000000, -1.224646799147353207E-16 ) ) ;
#245 = CARTESIAN_POINT ( 'NONE',  ( 1.312796983405018142E-13, 1.999999999999992228, 37.59999999999999432 ) ) ;
#246 = ORIENTED_EDGE ( 'NONE', *, *, #228, .F. ) ;
#247 = CC_DESIGN_APPROVAL ( #230, ( #327 ) ) ;
#248 = PLANE ( 'NONE',  #108 ) ;
#249 = DIRECTION ( 'NONE',  ( 4.275831445896958607E-31, 1.000000000000000000, 1.224646799147353207E-16 ) ) ;
#250 = ORIENTED_EDGE ( 'NONE', *, *, #284, .T. ) ;
#251 = AXIS2_PLACEMENT_3D ( 'NONE', #185, #160, #282 ) ;
#252 = EDGE_LOOP ( 'NONE', ( #186 ) ) ;
#253 = APPROVAL ( #152, 'UNSPECIFIED' ) ;
#254 = DIRECTION ( 'NONE',  ( 0.0000000000000000000, 1.000000000000000000, 0.0000000000000000000 ) ) ;
#255 = DIRECTION ( 'NONE',  ( -3.491481338843133355E-15, 1.224646799147353207E-16, -1.000000000000000000 ) ) ;
#256 = DIRECTION ( 'NONE',  ( -3.491481338843133355E-15, 1.224646799147353207E-16, -1.000000000000000000 ) ) ;
#257 = DIRECTION ( 'NONE',  ( 3.491481338843133355E-15, -1.224646799147353207E-16, 1.000000000000000000 ) ) ;
#258 = DIRECTION ( 'NONE',  ( 0.0000000000000000000, -1.000000000000000000, 0.0000000000000000000 ) ) ;
#259 = AXIS2_PLACEMENT_3D ( 'NONE', #46, #255, #101 ) ;
#260 = CIRCLE ( 'NONE', #341, 1.999999999999993561 ) ;
#261 = CARTESIAN_POINT ( 'NONE',  ( 2.137183397710479182E-32, 0.1999999999999999278, 6.121136532892404794E-18 ) ) ;
#262 = VERTEX_POINT ( 'NONE', #144 ) ;
#263 = CARTESIAN_POINT ( 'NONE',  ( 2.094888803305879619E-15, 0.1999999999999999278, 0.5999999999999999778 ) ) ;
#264 = CC_DESIGN_PERSON_AND_ORGANIZATION_ASSIGNMENT ( #171, #96, ( #45 ) ) ;
#265 = CARTESIAN_POINT ( 'NONE',  ( 7.332110811570581624E-15, 0.3891310281069608745, 2.100000000000000089 ) ) ;
#266 = APPROVAL_PERSON_ORGANIZATION ( #198, #296, #62 ) ;
#267 = ORIENTED_EDGE ( 'NONE', *, *, #18, .F. ) ;
#268 = ORIENTED_EDGE ( 'NONE', *, *, #33, .T. ) ;
#269 = DIRECTION ( 'NONE',  ( 4.339058337333290564E-31, 1.000000000000000000, 1.224646799147353207E-16 ) ) ;
#270 = PERSON_AND_ORGANIZATION ( #179, #51 ) ;
#271 = DIRECTION ( 'NONE',  ( -3.491481338843133355E-15, 1.224646799147353207E-16, -1.000000000000000000 ) ) ;
#272 = DATE_TIME_ROLE ( 'classification_date' ) ;
#273 = ORIENTED_EDGE ( 'NONE', *, *, #55, .T. ) ;
#274 = DIRECTION ( 'NONE',  ( 0.0000000000000000000, 1.000000000000000000, 0.0000000000000000000 ) ) ;
#275 = CIRCLE ( 'NONE', #310, 1.959999999999998632 ) ;
#276 = AXIS2_PLACEMENT_3D ( 'NONE', #140, #85, #2 ) ;
#277 = CARTESIAN_POINT ( 'NONE',  ( 2.094888803305879619E-15, -7.347880794884117764E-17, 0.5999999999999999778 ) ) ;
#278 = ADVANCED_FACE ( 'NONE', ( #339, #129 ), #107, .T. ) ;
#279 = FACE_OUTER_BOUND ( 'NONE', #59, .T. ) ;
#280 = CARTESIAN_POINT ( 'NONE',  ( 7.332110811570581624E-15, -2.571758278209441957E-16, 2.100000000000000089 ) ) ;
#281 = CIRCLE ( 'NONE', #161, 0.2000000000000000111 ) ;
#282 = DIRECTION ( 'NONE',  ( 0.0000000000000000000, 1.000000000000000000, 0.0000000000000000000 ) ) ;
#283 = DIRECTION ( 'NONE',  ( -3.491481338843133355E-15, 1.224646799147353207E-16, -1.000000000000000000 ) ) ;
#284 = EDGE_CURVE ( 'NONE', #110, #110, #200, .T. ) ;
#285 =( GEOMETRIC_REPRESENTATION_CONTEXT ( 3 ) GLOBAL_UNCERTAINTY_ASSIGNED_CONTEXT ( ( #331 ) ) GLOBAL_UNIT_ASSIGNED_CONTEXT ( ( #24, #86, #314 ) ) REPRESENTATION_CONTEXT ( 'NONE', 'WORKASPACE' ) );
#286 = APPLICATION_CONTEXT ( 'configuration controlled 3d designs of mechanical parts and assemblies' ) ;
#287 = ADVANCED_FACE ( 'NONE', ( #207, #279 ), #187, .T. ) ;
#288 = FACE_BOUND ( 'NONE', #227, .T. ) ;
#289 = ORIENTED_EDGE ( 'NONE', *, *, #284, .F. ) ;
#290 = ORIENTED_EDGE ( 'NONE', *, *, #84, .T. ) ;
#291 = AXIS2_PLACEMENT_3D ( 'NONE', #211, #336, #80 ) ;
#292 = EDGE_LOOP ( 'NONE', ( #155 ) ) ;
#293 = APPROVAL_DATE_TIME ( #89, #296 ) ;
#294 = CARTESIAN_POINT ( 'NONE',  ( 2.770050982099165276E-14, -9.716030932093540661E-16, 7.933741335753474289 ) ) ;
#295 = APPROVAL_STATUS ( 'not_yet_approved' ) ;
#296 = APPROVAL ( #298, 'UNSPECIFIED' ) ;
#297 = CARTESIAN_POINT ( 'NONE',  ( 7.332110811570578468E-15, -2.571758278209440971E-16, 2.099999999999999645 ) ) ;
#298 = APPROVAL_STATUS ( 'not_yet_approved' ) ;
#299 = CARTESIAN_POINT ( 'NONE',  ( -6.414479494083434692E-32, 2.249896539108653198E-33, -1.837179945005465134E-17 ) ) ;
#300 = ADVANCED_FACE ( 'NONE', ( #4 ), #241, .F. ) ;
#301 = DIRECTION ( 'NONE',  ( 0.0000000000000000000, 1.000000000000000000, 0.0000000000000000000 ) ) ;
#302 = APPROVAL_DATE_TIME ( #328, #230 ) ;
#303 = DIRECTION ( 'NONE',  ( 4.275831445896958607E-31, 1.000000000000000000, 1.224646799147353207E-16 ) ) ;
#304 = FACE_OUTER_BOUND ( 'NONE', #157, .T. ) ;
#305 = CONICAL_SURFACE ( 'NONE', #50, 1.599999999999996314, 0.7853981633974433940 ) ;
#306 = CIRCLE ( 'NONE', #141, 0.2437047985323861354 ) ;
#307 = CARTESIAN_POINT ( 'NONE',  ( 0.0000000000000000000, 0.0000000000000000000, 0.0000000000000000000 ) ) ;
#308 = DIRECTION ( 'NONE',  ( 4.275831445896958607E-31, 1.000000000000000000, 1.224646799147353207E-16 ) ) ;
#309 = DIRECTION ( 'NONE',  ( 0.0000000000000000000, -1.000000000000000000, 0.0000000000000000000 ) ) ;
#310 = AXIS2_PLACEMENT_3D ( 'NONE', #294, #38, #274 ) ;
#311 = CALENDAR_DATE ( 2021, 13, 12 ) ;
#312 = FACE_OUTER_BOUND ( 'NONE', #56, .T. ) ;
#313 = CARTESIAN_POINT ( 'NONE',  ( 3.281992458512545354E-14, 1.959999999999997744, 9.400000000000000355 ) ) ;
#314 =( NAMED_UNIT ( * ) SI_UNIT ( $, .STERADIAN. ) SOLID_ANGLE_UNIT ( ) );
#315 = EDGE_CURVE ( 'NONE', #318, #318, #237, .T. ) ;
#316 = LOCAL_TIME ( 14, 55, 57.00000000000000000, #150 ) ;
#317 = VERTEX_POINT ( 'NONE', #168 ) ;
#318 = VERTEX_POINT ( 'NONE', #313 ) ;
#319 = ORIENTED_EDGE ( 'NONE', *, *, #111, .T. ) ;
#320 = AXIS2_PLACEMENT_3D ( 'NONE', #16, #131, #159 ) ;
#321 = CALENDAR_DATE ( 2021, 13, 12 ) ;
#322 = AXIS2_PLACEMENT_3D ( 'NONE', #280, #209, #309 ) ;
#323 = PERSON_AND_ORGANIZATION_ROLE ( 'creator' ) ;
#324 = CARTESIAN_POINT ( 'NONE',  ( 3.491481338843132566E-15, 0.0000000000000000000, 0.9999999999999997780 ) ) ;
#325 = APPLICATION_PROTOCOL_DEFINITION ( 'international standard', 'config_control_design', 1994, #109 ) ;
#326 = ORIENTED_EDGE ( 'NONE', *, *, #5, .T. ) ;
#327 = PRODUCT_DEFINITION ( 'UNKNOWN', '', #149, #69 ) ;
#328 = DATE_AND_TIME ( #6, #142 ) ;
#329 = CARTESIAN_POINT ( 'NONE',  ( 1.326762908760390423E-13, -4.653657836759941941E-15, 38.00000000000000000 ) ) ;
#330 = LOCAL_TIME ( 14, 55, 57.00000000000000000, #224 ) ;
#331 = UNCERTAINTY_MEASURE_WITH_UNIT (LENGTH_MEASURE( 1.000000000000000082E-05 ), #24, 'distance_accuracy_value', 'NONE');
#332 = CC_DESIGN_APPROVAL ( #296, ( #149 ) ) ;
#333 = EDGE_LOOP ( 'NONE', ( #196 ) ) ;
#334 = SHAPE_DEFINITION_REPRESENTATION ( #81, #164 ) ;
#335 = ORIENTED_EDGE ( 'NONE', *, *, #33, .F. ) ;
#336 = DIRECTION ( 'NONE',  ( -3.491481338843133355E-15, 1.224646799147353207E-16, -1.000000000000000000 ) ) ;
#337 = FACE_BOUND ( 'NONE', #127, .T. ) ;
#338 = FACE_OUTER_BOUND ( 'NONE', #333, .T. ) ;
#339 = FACE_OUTER_BOUND ( 'NONE', #47, .T. ) ;
#340 = EDGE_LOOP ( 'NONE', ( #289 ) ) ;
#341 = AXIS2_PLACEMENT_3D ( 'NONE', #162, #19, #74 ) ;
#342 = CARTESIAN_POINT ( 'NONE',  ( 2.770050982099165276E-14, -9.716030932093540661E-16, 7.933741335753474289 ) ) ;
#343 = ADVANCED_FACE ( 'NONE', ( #288, #167 ), #116, .F. ) ;
ENDSEC;
END-ISO-10303-21;
