ISO-10303-21;
HEADER;
FILE_DESCRIPTION (( 'STEP AP203' ),
    '1' );
FILE_NAME ('381928.step',
    '2021-12-13T13:55:57',
    ( '' ),
    ( '' ),
    'SwSTEP 2.0',
    'SolidWorks 2019',
    '' );
FILE_SCHEMA (( 'CONFIG_CONTROL_DESIGN' ));
ENDSEC;

DATA;
#1 = ORIENTED_EDGE ( 'NONE', *, *, #258, .T. ) ;
#2 = VERTEX_POINT ( 'NONE', #108 ) ;
#3 = COORDINATED_UNIVERSAL_TIME_OFFSET ( 1, 0, .AHEAD. ) ;
#4 = CIRCLE ( 'NONE', #193, 1.599999999999996314 ) ;
#5 =( LENGTH_UNIT ( ) NAMED_UNIT ( * ) SI_UNIT ( .MILLI., .METRE. ) );
#6 = VERTEX_POINT ( 'NONE', #168 ) ;
#7 = PRODUCT_DEFINITION ( 'UNKNOWN', '', #110, #83 ) ;
#8 = DIRECTION ( 'NONE',  ( -3.491481338843133355E-15, 1.224646799147353207E-16, -1.000000000000000000 ) ) ;
#9 = CONICAL_SURFACE ( 'NONE', #27, 1.599999999999996314, 0.7853981633974433940 ) ;
#10 = CC_DESIGN_APPROVAL ( #329, ( #238 ) ) ;
#11 = CARTESIAN_POINT ( 'NONE',  ( 2.770050982099165276E-14, 1.959999999999997744, 7.933741335753474289 ) ) ;
#12 = EDGE_LOOP ( 'NONE', ( #218 ) ) ;
#13 = ORIENTED_EDGE ( 'NONE', *, *, #133, .T. ) ;
#14 = PERSON_AND_ORGANIZATION_ROLE ( 'classification_officer' ) ;
#15 = FACE_BOUND ( 'NONE', #144, .T. ) ;
#16 = EDGE_LOOP ( 'NONE', ( #74 ) ) ;
#17 = CARTESIAN_POINT ( 'NONE',  ( -2.138281885567478077E-32, 7.500083238888621970E-34, -6.124282727158942497E-18 ) ) ;
#18 = APPROVAL_ROLE ( '' ) ;
#19 = EDGE_CURVE ( 'NONE', #62, #62, #36, .T. ) ;
#20 = DIRECTION ( 'NONE',  ( 0.0000000000000000000, -1.000000000000000000, 0.0000000000000000000 ) ) ;
#21 = MECHANICAL_CONTEXT ( 'NONE', #246, 'mechanical' ) ;
#22 = SECURITY_CLASSIFICATION_LEVEL ( 'unclassified' ) ;
#23 = DIRECTION ( 'NONE',  ( 3.491481338843133355E-15, -1.224646799147353207E-16, 1.000000000000000000 ) ) ;
#24 = CARTESIAN_POINT ( 'NONE',  ( 0.0000000000000000000, 0.0000000000000000000, 0.0000000000000000000 ) ) ;
#25 = DIRECTION ( 'NONE',  ( 0.0000000000000000000, 0.0000000000000000000, 1.000000000000000000 ) ) ;
#26 = FACE_OUTER_BOUND ( 'NONE', #167, .T. ) ;
#27 = AXIS2_PLACEMENT_3D ( 'NONE', #240, #8, #115 ) ;
#28 = EDGE_CURVE ( 'NONE', #111, #111, #114, .T. ) ;
#29 = CYLINDRICAL_SURFACE ( 'NONE', #309, 1.959999999999999076 ) ;
#30 = ORGANIZATION ( 'UNSPECIFIED', 'UNSPECIFIED', '' ) ;
#31 = VERTEX_POINT ( 'NONE', #241 ) ;
#32 = PERSON_AND_ORGANIZATION ( #163, #30 ) ;
#33 = VERTEX_POINT ( 'NONE', #138 ) ;
#34 = CARTESIAN_POINT ( 'NONE',  ( 7.332110811570578468E-15, -2.571758278209440971E-16, 2.099999999999999645 ) ) ;
#35 = CARTESIAN_POINT ( 'NONE',  ( -4.276563771134956155E-32, 1.500016647777724394E-33, -1.224856545431788499E-17 ) ) ;
#36 = CIRCLE ( 'NONE', #280, 0.1500000000000000222 ) ;
#37 = CC_DESIGN_SECURITY_CLASSIFICATION ( #238, ( #110 ) ) ;
#38 = ORIENTED_EDGE ( 'NONE', *, *, #55, .T. ) ;
#39 = DIRECTION ( 'NONE',  ( -3.491481338843133355E-15, 1.224646799147353207E-16, -1.000000000000000000 ) ) ;
#40 = CC_DESIGN_PERSON_AND_ORGANIZATION_ASSIGNMENT ( #310, #252, ( #110 ) ) ;
#41 = DATE_TIME_ROLE ( 'classification_date' ) ;
#42 = EDGE_LOOP ( 'NONE', ( #225 ) ) ;
#43 = DIRECTION ( 'NONE',  ( 3.491481338843133355E-15, -1.224646799147353207E-16, 1.000000000000000000 ) ) ;
#44 = CIRCLE ( 'NONE', #249, 1.999999999999993561 ) ;
#45 = DIRECTION ( 'NONE',  ( -3.491481338843133355E-15, 1.224646799147353207E-16, -1.000000000000000000 ) ) ;
#46 = APPROVAL ( #294, 'UNSPECIFIED' ) ;
#47 = DIRECTION ( 'NONE',  ( 4.275831445896958607E-31, 1.000000000000000000, 1.224646799147353207E-16 ) ) ;
#48 = APPROVAL_ROLE ( '' ) ;
#49 = APPROVAL_ROLE ( '' ) ;
#50 = ORIENTED_EDGE ( 'NONE', *, *, #19, .F. ) ;
#51 = DIRECTION ( 'NONE',  ( 4.355817272412799955E-31, 1.000000000000000000, 1.224646799147353207E-16 ) ) ;
#52 = PERSON_AND_ORGANIZATION ( #163, #30 ) ;
#53 = LOCAL_TIME ( 14, 55, 57.00000000000000000, #319 ) ;
#54 = CARTESIAN_POINT ( 'NONE',  ( 1.571166602479410010E-15, -5.510910596163088939E-17, 0.4500000000000000111 ) ) ;
#55 = EDGE_CURVE ( 'NONE', #33, #33, #278, .T. ) ;
#56 = DIRECTION ( 'NONE',  ( 0.0000000000000000000, 1.000000000000000000, 0.0000000000000000000 ) ) ;
#57 = AXIS2_PLACEMENT_3D ( 'NONE', #105, #255, #162 ) ;
#58 = CC_DESIGN_PERSON_AND_ORGANIZATION_ASSIGNMENT ( #52, #106, ( #264 ) ) ;
#59 = VERTEX_POINT ( 'NONE', #239 ) ;
#60 = AXIS2_PLACEMENT_3D ( 'NONE', #54, #313, #314 ) ;
#61 = FACE_OUTER_BOUND ( 'NONE', #151, .T. ) ;
#62 = VERTEX_POINT ( 'NONE', #326 ) ;
#63 = FACE_OUTER_BOUND ( 'NONE', #335, .T. ) ;
#64 = VERTEX_POINT ( 'NONE', #11 ) ;
#65 = DIRECTION ( 'NONE',  ( 0.0000000000000000000, 1.000000000000000000, 0.0000000000000000000 ) ) ;
#66 = CC_DESIGN_APPROVAL ( #212, ( #7 ) ) ;
#67 = CC_DESIGN_PERSON_AND_ORGANIZATION_ASSIGNMENT ( #332, #14, ( #238 ) ) ;
#68 = CARTESIAN_POINT ( 'NONE',  ( 0.0000000000000000000, 0.0000000000000000000, 0.0000000000000000000 ) ) ;
#69 = SHAPE_DEFINITION_REPRESENTATION ( #113, #343 ) ;
#70 = EDGE_LOOP ( 'NONE', ( #203 ) ) ;
#71 = PLANE ( 'NONE',  #322 ) ;
#72 = DIRECTION ( 'NONE',  ( -3.491481338843133355E-15, 1.224646799147353207E-16, -1.000000000000000000 ) ) ;
#73 = CIRCLE ( 'NONE', #57, 1.959999999999998632 ) ;
#74 = ORIENTED_EDGE ( 'NONE', *, *, #267, .F. ) ;
#75 = CARTESIAN_POINT ( 'NONE',  ( 1.312796983405018142E-13, -4.604671964794046935E-15, 37.59999999999999432 ) ) ;
#76 = FACE_OUTER_BOUND ( 'NONE', #16, .T. ) ;
#77 = DIRECTION ( 'NONE',  ( -4.275831445896958607E-31, -1.000000000000000000, -1.224646799147353207E-16 ) ) ;
#78 = DATE_AND_TIME ( #129, #285 ) ;
#79 = AXIS2_PLACEMENT_3D ( 'NONE', #179, #282, #47 ) ;
#80 = LOCAL_TIME ( 14, 55, 57.00000000000000000, #3 ) ;
#81 = CARTESIAN_POINT ( 'NONE',  ( 2.618611004132349228E-15, 0.0000000000000000000, 0.7499999999999997780 ) ) ;
#82 = ORIENTED_EDGE ( 'NONE', *, *, #289, .F. ) ;
#83 = DESIGN_CONTEXT ( 'detailed design', #188, 'design' ) ;
#84 = CC_DESIGN_PERSON_AND_ORGANIZATION_ASSIGNMENT ( #307, #271, ( #110 ) ) ;
#85 = ORIENTED_EDGE ( 'NONE', *, *, #28, .T. ) ;
#86 = EDGE_LOOP ( 'NONE', ( #244 ) ) ;
#87 = CYLINDRICAL_SURFACE ( 'NONE', #318, 1.999999999999995337 ) ;
#88 = ORIENTED_EDGE ( 'NONE', *, *, #219, .T. ) ;
#89 = DATE_AND_TIME ( #143, #302 ) ;
#90 = FACE_OUTER_BOUND ( 'NONE', #148, .T. ) ;
#91 = CIRCLE ( 'NONE', #135, 0.1499999999999999944 ) ;
#92 =( GEOMETRIC_REPRESENTATION_CONTEXT ( 3 ) GLOBAL_UNCERTAINTY_ASSIGNED_CONTEXT ( ( #201 ) ) GLOBAL_UNIT_ASSIGNED_CONTEXT ( ( #5, #145, #245 ) ) REPRESENTATION_CONTEXT ( 'NONE', 'WORKASPACE' ) );
#93 = FACE_BOUND ( 'NONE', #42, .T. ) ;
#94 = EDGE_LOOP ( 'NONE', ( #13 ) ) ;
#95 = FACE_OUTER_BOUND ( 'NONE', #94, .T. ) ;
#96 = EDGE_LOOP ( 'NONE', ( #50 ) ) ;
#97 = DIRECTION ( 'NONE',  ( 0.0000000000000000000, 1.000000000000000000, 0.0000000000000000000 ) ) ;
#98 = CIRCLE ( 'NONE', #301, 1.959999999999999076 ) ;
#99 = APPROVAL_PERSON_ORGANIZATION ( #257, #212, #48 ) ;
#100 = FACE_OUTER_BOUND ( 'NONE', #306, .T. ) ;
#101 = ADVANCED_FACE ( 'NONE', ( #90, #198 ), #123, .T. ) ;
#102 = DIRECTION ( 'NONE',  ( 3.491481338843133355E-15, -1.224646799147353207E-16, 1.000000000000000000 ) ) ;
#103 = DIRECTION ( 'NONE',  ( 1.000000000000000000, 0.0000000000000000000, 0.0000000000000000000 ) ) ;
#104 = PRODUCT_RELATED_PRODUCT_CATEGORY ( 'detail', '', ( #264 ) ) ;
#105 = CARTESIAN_POINT ( 'NONE',  ( 2.770050982099165276E-14, -9.716030932093540661E-16, 7.933741335753474289 ) ) ;
#106 = PERSON_AND_ORGANIZATION_ROLE ( 'design_owner' ) ;
#107 = TOROIDAL_SURFACE ( 'NONE', #261, 2.149999999999999911, 2.000000000000000000 ) ;
#108 = CARTESIAN_POINT ( 'NONE',  ( 1.571166602479410010E-15, 0.1499999999999999389, 0.4500000000000000111 ) ) ;
#109 = AXIS2_PLACEMENT_3D ( 'NONE', #253, #23, #207 ) ;
#110 = PRODUCT_DEFINITION_FORMATION_WITH_SPECIFIED_SOURCE ( 'ANY', '', #264, .NOT_KNOWN. ) ;
#111 = VERTEX_POINT ( 'NONE', #166 ) ;
#112 = ADVANCED_FACE ( 'NONE', ( #15, #61 ), #165, .T. ) ;
#113 = PRODUCT_DEFINITION_SHAPE ( 'NONE', 'NONE',  #7 ) ;
#114 = CIRCLE ( 'NONE', #127, 0.7199999999999999734 ) ;
#115 = DIRECTION ( 'NONE',  ( 0.0000000000000000000, 1.000000000000000000, 0.0000000000000000000 ) ) ;
#116 = VERTEX_POINT ( 'NONE', #330 ) ;
#117 = DIRECTION ( 'NONE',  ( 4.275831445896958607E-31, 1.000000000000000000, 1.224646799147353207E-16 ) ) ;
#118 = DATE_AND_TIME ( #273, #136 ) ;
#119 = DIRECTION ( 'NONE',  ( -3.491481338843133355E-15, 1.224646799147353207E-16, -1.000000000000000000 ) ) ;
#120 = DIRECTION ( 'NONE',  ( 0.0000000000000000000, 1.000000000000000000, 0.0000000000000000000 ) ) ;
#121 = APPROVAL_PERSON_ORGANIZATION ( #190, #46, #49 ) ;
#122 = CC_DESIGN_DATE_AND_TIME_ASSIGNMENT ( #118, #41, ( #238 ) ) ;
#123 = CYLINDRICAL_SURFACE ( 'NONE', #339, 0.1499999999999999667 ) ;
#124 = EDGE_LOOP ( 'NONE', ( #88 ) ) ;
#125 = FACE_OUTER_BOUND ( 'NONE', #305, .T. ) ;
#126 = APPLICATION_PROTOCOL_DEFINITION ( 'international standard', 'config_control_design', 1994, #188 ) ;
#127 = AXIS2_PLACEMENT_3D ( 'NONE', #34, #274, #173 ) ;
#128 = DIRECTION ( 'NONE',  ( 4.275831445896958607E-31, 1.000000000000000000, 1.224646799147352961E-16 ) ) ;
#129 = CALENDAR_DATE ( 2021, 13, 12 ) ;
#130 = DIRECTION ( 'NONE',  ( -3.491481338843133355E-15, 1.224646799147353207E-16, -1.000000000000000000 ) ) ;
#131 = ORIENTED_EDGE ( 'NONE', *, *, #231, .T. ) ;
#132 = AXIS2_PLACEMENT_3D ( 'NONE', #215, #268, #77 ) ;
#133 = EDGE_CURVE ( 'NONE', #59, #59, #44, .T. ) ;
#134 = CARTESIAN_POINT ( 'NONE',  ( 1.571166602479410010E-15, -5.510910596163088939E-17, 0.4500000000000000111 ) ) ;
#135 = AXIS2_PLACEMENT_3D ( 'NONE', #134, #227, #176 ) ;
#136 = LOCAL_TIME ( 14, 55, 57.00000000000000000, #303 ) ;
#137 = PERSON_AND_ORGANIZATION_ROLE ( 'creator' ) ;
#138 = CARTESIAN_POINT ( 'NONE',  ( 2.137183397710479182E-32, 0.1499999999999999389, 6.121136532892404794E-18 ) ) ;
#139 = FACE_BOUND ( 'NONE', #70, .T. ) ;
#140 = VERTEX_POINT ( 'NONE', #164 ) ;
#141 = CC_DESIGN_DATE_AND_TIME_ASSIGNMENT ( #325, #161, ( #7 ) ) ;
#142 = PLANE ( 'NONE',  #132 ) ;
#143 = CALENDAR_DATE ( 2021, 13, 12 ) ;
#144 = EDGE_LOOP ( 'NONE', ( #331 ) ) ;
#145 =( NAMED_UNIT ( * ) PLANE_ANGLE_UNIT ( ) SI_UNIT ( $, .RADIAN. ) );
#146 = ORIENTED_EDGE ( 'NONE', *, *, #219, .F. ) ;
#147 = ADVANCED_FACE ( 'NONE', ( #221 ), #223, .F. ) ;
#148 = EDGE_LOOP ( 'NONE', ( #266 ) ) ;
#149 = DIRECTION ( 'NONE',  ( 0.0000000000000000000, -1.000000000000000000, 0.0000000000000000000 ) ) ;
#150 = AXIS2_PLACEMENT_3D ( 'NONE', #172, #43, #149 ) ;
#151 = EDGE_LOOP ( 'NONE', ( #1 ) ) ;
#152 = FACE_OUTER_BOUND ( 'NONE', #300, .T. ) ;
#153 = FACE_BOUND ( 'NONE', #86, .T. ) ;
#154 = DIRECTION ( 'NONE',  ( -3.491481338843133355E-15, 1.224646799147353207E-16, -1.000000000000000000 ) ) ;
#155 = CC_DESIGN_PERSON_AND_ORGANIZATION_ASSIGNMENT ( #32, #137, ( #7 ) ) ;
#156 = COORDINATED_UNIVERSAL_TIME_OFFSET ( 1, 0, .AHEAD. ) ;
#157 = DIRECTION ( 'NONE',  ( 4.275831445896958607E-31, 1.000000000000000000, 1.224646799147353207E-16 ) ) ;
#158 = APPROVAL_DATE_TIME ( #287, #212 ) ;
#159 = EDGE_LOOP ( 'NONE', ( #85 ) ) ;
#160 = CONICAL_SURFACE ( 'NONE', #265, 0.3922701685244646685, 0.2094395102393124541 ) ;
#161 = DATE_TIME_ROLE ( 'creation_date' ) ;
#162 = DIRECTION ( 'NONE',  ( 0.0000000000000000000, 1.000000000000000000, 0.0000000000000000000 ) ) ;
#163 = PERSON ( 'UNSPECIFIED', 'UNSPECIFIED', 'UNSPECIFIED', ('UNSPECIFIED'), ('UNSPECIFIED'), ('UNSPECIFIED') ) ;
#164 = CARTESIAN_POINT ( 'NONE',  ( 7.332110811570581624E-15, 0.3922701685244643910, 2.100000000000000089 ) ) ;
#165 = CONICAL_SURFACE ( 'NONE', #150, 1.959999999999998632, 0.2094395102393127039 ) ;
#166 = CARTESIAN_POINT ( 'NONE',  ( 7.332110811570578468E-15, 0.7199999999999997513, 2.099999999999999645 ) ) ;
#167 = EDGE_LOOP ( 'NONE', ( #320 ) ) ;
#168 = CARTESIAN_POINT ( 'NONE',  ( 4.070450581367362190E-15, 0.1937047985323858967, 1.165823381635505029 ) ) ;
#169 = DIRECTION ( 'NONE',  ( 3.491481338843133355E-15, -1.224646799147353207E-16, 1.000000000000000000 ) ) ;
#170 = CARTESIAN_POINT ( 'NONE',  ( 1.326762908760390423E-13, 1.599999999999991873, 38.00000000000000000 ) ) ;
#171 = CLOSED_SHELL ( 'NONE', ( #189, #275, #260, #321, #177, #112, #191, #236, #338, #185, #323 ) ) ;
#172 = CARTESIAN_POINT ( 'NONE',  ( 2.770050982099165276E-14, -9.716030932093540661E-16, 7.933741335753474289 ) ) ;
#173 = DIRECTION ( 'NONE',  ( 0.0000000000000000000, 1.000000000000000000, 0.0000000000000000000 ) ) ;
#174 = ORIENTED_EDGE ( 'NONE', *, *, #317, .T. ) ;
#175 = FACE_OUTER_BOUND ( 'NONE', #12, .T. ) ;
#176 = DIRECTION ( 'NONE',  ( 0.0000000000000000000, 1.000000000000000000, 0.0000000000000000000 ) ) ;
#177 = ADVANCED_FACE ( 'NONE', ( #93, #200 ), #71, .F. ) ;
#178 = APPROVAL_DATE_TIME ( #89, #329 ) ;
#179 = CARTESIAN_POINT ( 'NONE',  ( 1.326762908760390423E-13, 1.199807826129476644E-32, 38.00000000000000000 ) ) ;
#180 = CARTESIAN_POINT ( 'NONE',  ( 7.332110811570581624E-15, -2.571758278209441957E-16, 2.100000000000000089 ) ) ;
#181 = CARTESIAN_POINT ( 'NONE',  ( 1.326762908760390423E-13, -4.653657836759941941E-15, 38.00000000000000000 ) ) ;
#182 = EDGE_LOOP ( 'NONE', ( #186 ) ) ;
#183 = PLANE ( 'NONE',  #234 ) ;
#184 = CALENDAR_DATE ( 2021, 13, 12 ) ;
#185 = ADVANCED_FACE ( 'NONE', ( #175, #139 ), #9, .T. ) ;
#186 = ORIENTED_EDGE ( 'NONE', *, *, #248, .T. ) ;
#187 = CALENDAR_DATE ( 2021, 13, 12 ) ;
#188 = APPLICATION_CONTEXT ( 'configuration controlled 3d designs of mechanical parts and assemblies' ) ;
#189 = ADVANCED_FACE ( 'NONE', ( #63 ), #142, .F. ) ;
#190 = PERSON_AND_ORGANIZATION ( #163, #30 ) ;
#191 = ADVANCED_FACE ( 'NONE', ( #26, #100 ), #29, .T. ) ;
#192 = FACE_OUTER_BOUND ( 'NONE', #182, .T. ) ;
#193 = AXIS2_PLACEMENT_3D ( 'NONE', #181, #341, #259 ) ;
#194 = EDGE_LOOP ( 'NONE', ( #235 ) ) ;
#195 = CARTESIAN_POINT ( 'NONE',  ( 0.0000000000000000000, 0.0000000000000000000, 0.0000000000000000000 ) ) ;
#196 = EDGE_LOOP ( 'NONE', ( #38 ) ) ;
#197 = CIRCLE ( 'NONE', #211, 0.1937047985323860355 ) ;
#198 = FACE_OUTER_BOUND ( 'NONE', #199, .T. ) ;
#199 = EDGE_LOOP ( 'NONE', ( #174 ) ) ;
#200 = FACE_OUTER_BOUND ( 'NONE', #159, .T. ) ;
#201 = UNCERTAINTY_MEASURE_WITH_UNIT (LENGTH_MEASURE( 1.000000000000000082E-05 ), #5, 'distance_accuracy_value', 'NONE');
#202 = DIRECTION ( 'NONE',  ( -3.491481338843133355E-15, 1.224646799147353207E-16, -1.000000000000000000 ) ) ;
#203 = ORIENTED_EDGE ( 'NONE', *, *, #289, .T. ) ;
#204 = PLANE ( 'NONE',  #79 ) ;
#205 = MANIFOLD_SOLID_BREP ( 'Corps-Déplacer/Copier1[1]', #171 ) ;
#206 = DIRECTION ( 'NONE',  ( 0.0000000000000000000, 1.000000000000000000, 0.0000000000000000000 ) ) ;
#207 = DIRECTION ( 'NONE',  ( -4.275831445896958607E-31, -1.000000000000000000, -1.224646799147353207E-16 ) ) ;
#208 = DIRECTION ( 'NONE',  ( -3.491481338843133355E-15, 1.224646799147353207E-16, -1.000000000000000000 ) ) ;
#209 = APPROVAL_STATUS ( 'not_yet_approved' ) ;
#210 = AXIS2_PLACEMENT_3D ( 'NONE', #35, #304, #117 ) ;
#211 = AXIS2_PLACEMENT_3D ( 'NONE', #340, #154, #56 ) ;
#212 = APPROVAL ( #209, 'UNSPECIFIED' ) ;
#213 = FACE_OUTER_BOUND ( 'NONE', #194, .T. ) ;
#214 = AXIS2_PLACEMENT_3D ( 'NONE', #75, #202, #286 ) ;
#215 = CARTESIAN_POINT ( 'NONE',  ( 1.571166602479410010E-15, 1.124819836996392351E-33, 0.4500000000000000111 ) ) ;
#216 = DIRECTION ( 'NONE',  ( -3.491481338843133355E-15, 1.224646799147353207E-16, -1.000000000000000000 ) ) ;
#217 = COORDINATED_UNIVERSAL_TIME_OFFSET ( 1, 0, .AHEAD. ) ;
#218 = ORIENTED_EDGE ( 'NONE', *, *, #248, .F. ) ;
#219 = EDGE_CURVE ( 'NONE', #6, #6, #197, .T. ) ;
#220 = CIRCLE ( 'NONE', #237, 0.3922701685244646685 ) ;
#221 = FACE_OUTER_BOUND ( 'NONE', #196, .T. ) ;
#222 = AXIS2_PLACEMENT_3D ( 'NONE', #254, #25, #103 ) ;
#223 = PLANE ( 'NONE',  #229 ) ;
#224 = APPROVAL_STATUS ( 'not_yet_approved' ) ;
#225 = ORIENTED_EDGE ( 'NONE', *, *, #231, .F. ) ;
#226 = PLANE ( 'NONE',  #109 ) ;
#227 = DIRECTION ( 'NONE',  ( -3.491481338843133355E-15, 1.224646799147353207E-16, -1.000000000000000000 ) ) ;
#228 = APPLICATION_PROTOCOL_DEFINITION ( 'international standard', 'config_control_design', 1994, #246 ) ;
#229 = AXIS2_PLACEMENT_3D ( 'NONE', #17, #250, #334 ) ;
#230 = CARTESIAN_POINT ( 'NONE',  ( 3.281992458512545354E-14, -1.151167991198511931E-15, 9.400000000000000355 ) ) ;
#231 = EDGE_CURVE ( 'NONE', #140, #140, #220, .T. ) ;
#232 = FACE_OUTER_BOUND ( 'NONE', #96, .T. ) ;
#233 = EDGE_LOOP ( 'NONE', ( #276 ) ) ;
#234 = AXIS2_PLACEMENT_3D ( 'NONE', #342, #102, #316 ) ;
#235 = ORIENTED_EDGE ( 'NONE', *, *, #133, .F. ) ;
#236 = ADVANCED_FACE ( 'NONE', ( #153, #95 ), #226, .F. ) ;
#237 = AXIS2_PLACEMENT_3D ( 'NONE', #263, #130, #206 ) ;
#238 = SECURITY_CLASSIFICATION ( '', '', #22 ) ;
#239 = CARTESIAN_POINT ( 'NONE',  ( 3.281992458512545354E-14, 1.999999999999992228, 9.400000000000000355 ) ) ;
#240 = CARTESIAN_POINT ( 'NONE',  ( 1.326762908760390423E-13, -4.653657836759941941E-15, 38.00000000000000000 ) ) ;
#241 = CARTESIAN_POINT ( 'NONE',  ( 1.312796983405018142E-13, 1.999999999999992228, 37.59999999999999432 ) ) ;
#242 = AXIS2_PLACEMENT_3D ( 'NONE', #24, #45, #128 ) ;
#243 = EDGE_LOOP ( 'NONE', ( #146 ) ) ;
#244 = ORIENTED_EDGE ( 'NONE', *, *, #288, .F. ) ;
#245 =( NAMED_UNIT ( * ) SI_UNIT ( $, .STERADIAN. ) SOLID_ANGLE_UNIT ( ) );
#246 = APPLICATION_CONTEXT ( 'configuration controlled 3d designs of mechanical parts and assemblies' ) ;
#247 = DIRECTION ( 'NONE',  ( 4.275831445896958607E-31, 1.000000000000000000, 1.224646799147353207E-16 ) ) ;
#248 = EDGE_CURVE ( 'NONE', #31, #31, #327, .T. ) ;
#249 = AXIS2_PLACEMENT_3D ( 'NONE', #328, #216, #120 ) ;
#250 = DIRECTION ( 'NONE',  ( 3.491481338843133355E-15, -1.224646799147353207E-16, 1.000000000000000000 ) ) ;
#251 = DIRECTION ( 'NONE',  ( 3.491481338843133355E-15, -1.224646799147353207E-16, 1.000000000000000000 ) ) ;
#252 = PERSON_AND_ORGANIZATION_ROLE ( 'design_supplier' ) ;
#253 = CARTESIAN_POINT ( 'NONE',  ( 3.281992458512545354E-14, 2.969524369670470729E-32, 9.400000000000000355 ) ) ;
#254 = CARTESIAN_POINT ( 'NONE',  ( 0.0000000000000000000, 0.0000000000000000000, 0.0000000000000000000 ) ) ;
#255 = DIRECTION ( 'NONE',  ( -3.491481338843133355E-15, 1.224646799147353207E-16, -1.000000000000000000 ) ) ;
#256 = CIRCLE ( 'NONE', #60, 0.1499999999999999944 ) ;
#257 = PERSON_AND_ORGANIZATION ( #163, #30 ) ;
#258 = EDGE_CURVE ( 'NONE', #64, #64, #73, .T. ) ;
#259 = DIRECTION ( 'NONE',  ( 0.0000000000000000000, 1.000000000000000000, 0.0000000000000000000 ) ) ;
#260 = ADVANCED_FACE ( 'NONE', ( #284, #232 ), #107, .F. ) ;
#261 = AXIS2_PLACEMENT_3D ( 'NONE', #81, #208, #51 ) ;
#262 = EDGE_LOOP ( 'NONE', ( #272 ) ) ;
#263 = CARTESIAN_POINT ( 'NONE',  ( 7.332110811570581624E-15, -2.571758278209441957E-16, 2.100000000000000089 ) ) ;
#264 = PRODUCT ( '381928', '381928', '', ( #21 ) ) ;
#265 = AXIS2_PLACEMENT_3D ( 'NONE', #180, #251, #20 ) ;
#266 = ORIENTED_EDGE ( 'NONE', *, *, #55, .F. ) ;
#267 = EDGE_CURVE ( 'NONE', #293, #293, #256, .T. ) ;
#268 = DIRECTION ( 'NONE',  ( 3.491481338843133355E-15, -1.224646799147353207E-16, 1.000000000000000000 ) ) ;
#269 = DIRECTION ( 'NONE',  ( -3.491481338843133355E-15, 1.224646799147353207E-16, -1.000000000000000000 ) ) ;
#270 = APPROVAL_PERSON_ORGANIZATION ( #279, #329, #18 ) ;
#271 = PERSON_AND_ORGANIZATION_ROLE ( 'creator' ) ;
#272 = ORIENTED_EDGE ( 'NONE', *, *, #19, .T. ) ;
#273 = CALENDAR_DATE ( 2021, 13, 12 ) ;
#274 = DIRECTION ( 'NONE',  ( -3.491481338843133355E-15, 1.224646799147353207E-16, -1.000000000000000000 ) ) ;
#275 = ADVANCED_FACE ( 'NONE', ( #76, #337 ), #308, .T. ) ;
#276 = ORIENTED_EDGE ( 'NONE', *, *, #317, .F. ) ;
#277 = CARTESIAN_POINT ( 'NONE',  ( 2.618611004132350016E-15, -9.184850993605149670E-17, 0.7500000000000000000 ) ) ;
#278 = CIRCLE ( 'NONE', #210, 0.1499999999999999389 ) ;
#279 = PERSON_AND_ORGANIZATION ( #163, #30 ) ;
#280 = AXIS2_PLACEMENT_3D ( 'NONE', #277, #119, #65 ) ;
#281 = FACE_BOUND ( 'NONE', #243, .T. ) ;
#282 = DIRECTION ( 'NONE',  ( -3.491481338843133355E-15, 1.224646799147353207E-16, -1.000000000000000000 ) ) ;
#283 = DIRECTION ( 'NONE',  ( -3.491481338843133355E-15, 1.224646799147353207E-16, -1.000000000000000000 ) ) ;
#284 = FACE_OUTER_BOUND ( 'NONE', #124, .T. ) ;
#285 = LOCAL_TIME ( 14, 55, 57.00000000000000000, #156 ) ;
#286 = DIRECTION ( 'NONE',  ( 0.0000000000000000000, 1.000000000000000000, 0.0000000000000000000 ) ) ;
#287 = DATE_AND_TIME ( #184, #53 ) ;
#288 = EDGE_CURVE ( 'NONE', #116, #116, #98, .T. ) ;
#289 = EDGE_CURVE ( 'NONE', #299, #299, #4, .T. ) ;
#290 = CARTESIAN_POINT ( 'NONE',  ( 1.571166602479410010E-15, 0.1499999999999999389, 0.4500000000000000111 ) ) ;
#291 = ADVANCED_FACE ( 'NONE', ( #336 ), #183, .T. ) ;
#292 = APPROVAL_DATE_TIME ( #78, #46 ) ;
#293 = VERTEX_POINT ( 'NONE', #290 ) ;
#294 = APPROVAL_STATUS ( 'not_yet_approved' ) ;
#295 = CLOSED_SHELL ( 'NONE', ( #147, #101, #291 ) ) ;
#296 = DIRECTION ( 'NONE',  ( -4.275831445896958607E-31, -1.000000000000000000, -1.224646799147353207E-16 ) ) ;
#297 = DIRECTION ( 'NONE',  ( 4.275831445896958607E-31, 1.000000000000000000, 1.224646799147353207E-16 ) ) ;
#298 = CARTESIAN_POINT ( 'NONE',  ( 7.332110811570580046E-15, 5.557808520435584291E-15, 2.100000000000000089 ) ) ;
#299 = VERTEX_POINT ( 'NONE', #170 ) ;
#300 = EDGE_LOOP ( 'NONE', ( #131 ) ) ;
#301 = AXIS2_PLACEMENT_3D ( 'NONE', #230, #72, #97 ) ;
#302 = LOCAL_TIME ( 14, 55, 57.00000000000000000, #217 ) ;
#303 = COORDINATED_UNIVERSAL_TIME_OFFSET ( 1, 0, .AHEAD. ) ;
#304 = DIRECTION ( 'NONE',  ( -3.491481338843133355E-15, 1.224646799147353207E-16, -1.000000000000000000 ) ) ;
#305 = EDGE_LOOP ( 'NONE', ( #82 ) ) ;
#306 = EDGE_LOOP ( 'NONE', ( #333 ) ) ;
#307 = PERSON_AND_ORGANIZATION ( #163, #30 ) ;
#308 = CYLINDRICAL_SURFACE ( 'NONE', #242, 0.1500000000000000222 ) ;
#309 = AXIS2_PLACEMENT_3D ( 'NONE', #315, #283, #157 ) ;
#310 = PERSON_AND_ORGANIZATION ( #163, #30 ) ;
#311 = ORIENTED_EDGE ( 'NONE', *, *, #267, .T. ) ;
#312 = CC_DESIGN_APPROVAL ( #46, ( #110 ) ) ;
#313 = DIRECTION ( 'NONE',  ( -3.491481338843133355E-15, 1.224646799147353207E-16, -1.000000000000000000 ) ) ;
#314 = DIRECTION ( 'NONE',  ( 0.0000000000000000000, 1.000000000000000000, 0.0000000000000000000 ) ) ;
#315 = CARTESIAN_POINT ( 'NONE',  ( 0.0000000000000000000, 0.0000000000000000000, 0.0000000000000000000 ) ) ;
#316 = DIRECTION ( 'NONE',  ( -4.275831445896958607E-31, -1.000000000000000000, -1.224646799147353207E-16 ) ) ;
#317 = EDGE_CURVE ( 'NONE', #2, #2, #91, .T. ) ;
#318 = AXIS2_PLACEMENT_3D ( 'NONE', #195, #269, #297 ) ;
#319 = COORDINATED_UNIVERSAL_TIME_OFFSET ( 1, 0, .AHEAD. ) ;
#320 = ORIENTED_EDGE ( 'NONE', *, *, #258, .F. ) ;
#321 = ADVANCED_FACE ( 'NONE', ( #281, #152 ), #160, .T. ) ;
#322 = AXIS2_PLACEMENT_3D ( 'NONE', #298, #169, #296 ) ;
#323 = ADVANCED_FACE ( 'NONE', ( #125 ), #204, .F. ) ;
#324 = MANIFOLD_SOLID_BREP ( 'Corps-Déplacer/Copier1[2]', #295 ) ;
#325 = DATE_AND_TIME ( #187, #80 ) ;
#326 = CARTESIAN_POINT ( 'NONE',  ( 2.618611004132350016E-15, 0.1499999999999999389, 0.7500000000000000000 ) ) ;
#327 = CIRCLE ( 'NONE', #214, 1.999999999999997113 ) ;
#328 = CARTESIAN_POINT ( 'NONE',  ( 3.281992458512545354E-14, -1.151167991198511931E-15, 9.400000000000000355 ) ) ;
#329 = APPROVAL ( #224, 'UNSPECIFIED' ) ;
#330 = CARTESIAN_POINT ( 'NONE',  ( 3.281992458512545354E-14, 1.959999999999997744, 9.400000000000000355 ) ) ;
#331 = ORIENTED_EDGE ( 'NONE', *, *, #28, .F. ) ;
#332 = PERSON_AND_ORGANIZATION ( #163, #30 ) ;
#333 = ORIENTED_EDGE ( 'NONE', *, *, #288, .T. ) ;
#334 = DIRECTION ( 'NONE',  ( -4.275831445896958607E-31, -1.000000000000000000, -1.224646799147353207E-16 ) ) ;
#335 = EDGE_LOOP ( 'NONE', ( #311 ) ) ;
#336 = FACE_OUTER_BOUND ( 'NONE', #233, .T. ) ;
#337 = FACE_OUTER_BOUND ( 'NONE', #262, .T. ) ;
#338 = ADVANCED_FACE ( 'NONE', ( #213, #192 ), #87, .T. ) ;
#339 = AXIS2_PLACEMENT_3D ( 'NONE', #68, #39, #247 ) ;
#340 = CARTESIAN_POINT ( 'NONE',  ( 4.070450581367362190E-15, -1.427721872691064540E-16, 1.165823381635505029 ) ) ;
#341 = DIRECTION ( 'NONE',  ( -3.491481338843133355E-15, 1.224646799147353207E-16, -1.000000000000000000 ) ) ;
#342 = CARTESIAN_POINT ( 'NONE',  ( 1.571166602479410010E-15, 1.124819836996392351E-33, 0.4500000000000000111 ) ) ;
#343 = ADVANCED_BREP_SHAPE_REPRESENTATION ( '381928', ( #205, #324, #222 ), #92 ) ;
ENDSEC;
END-ISO-10303-21;
