ISO-10303-21;
HEADER;
FILE_DESCRIPTION (( 'STEP AP203' ),
    '1' );
FILE_NAME ('38190.step',
    '2021-10-07T13:47:46',
    ( '' ),
    ( '' ),
    'SwSTEP 2.0',
    'SolidWorks 2019',
    '' );
FILE_SCHEMA (( 'CONFIG_CONTROL_DESIGN' ));
ENDSEC;

DATA;
#1 = LOCAL_TIME ( 15, 47, 46.00000000000000000, #49 ) ;
#2 = PERSON ( 'UNSPECIFIED', 'UNSPECIFIED', 'UNSPECIFIED', ('UNSPECIFIED'), ('UNSPECIFIED'), ('UNSPECIFIED') ) ;
#3 = CC_DESIGN_SECURITY_CLASSIFICATION ( #110, ( #221 ) ) ;
#4 = EDGE_LOOP ( 'NONE', ( #67 ) ) ;
#5 = CC_DESIGN_PERSON_AND_ORGANIZATION_ASSIGNMENT ( #179, #109, ( #221 ) ) ;
#6 = DATE_AND_TIME ( #129, #204 ) ;
#7 = ORIENTED_EDGE ( 'NONE', *, *, #62, .F. ) ;
#8 = SECURITY_CLASSIFICATION_LEVEL ( 'unclassified' ) ;
#9 = DIRECTION ( 'NONE',  ( -4.275831445896958607E-31, -1.000000000000000000, -1.224646799147353207E-16 ) ) ;
#10 = AXIS2_PLACEMENT_3D ( 'NONE', #133, #82, #59 ) ;
#11 = VERTEX_POINT ( 'NONE', #181 ) ;
#12 = DIRECTION ( 'NONE',  ( 3.491481338843133355E-15, -1.224646799147353207E-16, 1.000000000000000000 ) ) ;
#13 = EDGE_CURVE ( 'NONE', #214, #214, #78, .T. ) ;
#14 = FACE_OUTER_BOUND ( 'NONE', #37, .T. ) ;
#15 = CARTESIAN_POINT ( 'NONE',  ( 0.0000000000000000000, 0.0000000000000000000, 0.0000000000000000000 ) ) ;
#16 = CC_DESIGN_APPROVAL ( #217, ( #110 ) ) ;
#17 = COORDINATED_UNIVERSAL_TIME_OFFSET ( 1, 0, .AHEAD. ) ;
#18 = ORIENTED_EDGE ( 'NONE', *, *, #136, .F. ) ;
#19 = APPROVAL_DATE_TIME ( #89, #180 ) ;
#20 = EDGE_LOOP ( 'NONE', ( #48 ) ) ;
#21 = DIRECTION ( 'NONE',  ( -3.491481338843133355E-15, 1.224646799147353207E-16, -1.000000000000000000 ) ) ;
#22 = PERSON_AND_ORGANIZATION ( #2, #161 ) ;
#23 = CARTESIAN_POINT ( 'NONE',  ( 1.047444401652940007E-13, 2.999519565323649872E-33, 30.00000000000000000 ) ) ;
#24 = CARTESIAN_POINT ( 'NONE',  ( 1.047444401652940007E-13, -3.673940397442059178E-15, 30.00000000000000000 ) ) ;
#25 = APPROVAL_PERSON_ORGANIZATION ( #163, #217, #151 ) ;
#26 = CARTESIAN_POINT ( 'NONE',  ( 5.874102188025331801E-16, 0.2799999999999990274, 0.1682409733277181463 ) ) ;
#27 = APPLICATION_CONTEXT ( 'configuration controlled 3d designs of mechanical parts and assemblies' ) ;
#28 = CARTESIAN_POINT ( 'NONE',  ( 0.0000000000000000000, 0.0000000000000000000, 0.0000000000000000000 ) ) ;
#29 = PRODUCT_DEFINITION ( 'UNKNOWN', '', #221, #174 ) ;
#30 = DIRECTION ( 'NONE',  ( -3.491481338843133355E-15, 1.224646799147353207E-16, -1.000000000000000000 ) ) ;
#31 = LOCAL_TIME ( 15, 47, 46.00000000000000000, #50 ) ;
#32 = DIRECTION ( 'NONE',  ( 0.0000000000000000000, 1.000000000000000000, 0.0000000000000000000 ) ) ;
#33 = ORIENTED_EDGE ( 'NONE', *, *, #13, .T. ) ;
#34 = CALENDAR_DATE ( 2021, 7, 10 ) ;
#35 = ORIENTED_EDGE ( 'NONE', *, *, #85, .F. ) ;
#36 = PERSON_AND_ORGANIZATION ( #2, #161 ) ;
#37 = EDGE_LOOP ( 'NONE', ( #193 ) ) ;
#38 = FACE_OUTER_BOUND ( 'NONE', #195, .T. ) ;
#39 = EDGE_CURVE ( 'NONE', #203, #203, #192, .T. ) ;
#40 = FACE_OUTER_BOUND ( 'NONE', #73, .T. ) ;
#41 = CONICAL_SURFACE ( 'NONE', #10, 0.3999999999999986899, 0.7853981633974504994 ) ;
#42 = DIRECTION ( 'NONE',  ( 0.0000000000000000000, 1.000000000000000000, 0.0000000000000000000 ) ) ;
#43 = ADVANCED_FACE ( 'NONE', ( #80 ), #77, .T. ) ;
#44 = DIRECTION ( 'NONE',  ( 3.491481338843133355E-15, -1.224646799147353207E-16, 1.000000000000000000 ) ) ;
#45 = ADVANCED_FACE ( 'NONE', ( #155 ), #96, .T. ) ;
#46 = CIRCLE ( 'NONE', #108, 0.4999999999999970024 ) ;
#47 = VERTEX_POINT ( 'NONE', #54 ) ;
#48 = ORIENTED_EDGE ( 'NONE', *, *, #13, .F. ) ;
#49 = COORDINATED_UNIVERSAL_TIME_OFFSET ( 1, 0, .AHEAD. ) ;
#50 = COORDINATED_UNIVERSAL_TIME_OFFSET ( 1, 0, .AHEAD. ) ;
#51 = EDGE_LOOP ( 'NONE', ( #7 ) ) ;
#52 = APPROVAL_ROLE ( '' ) ;
#53 = PERSON_AND_ORGANIZATION ( #2, #161 ) ;
#54 = CARTESIAN_POINT ( 'NONE',  ( 1.571166602479410010E-14, 0.2799999999999990274, 4.500000000000000000 ) ) ;
#55 = DIRECTION ( 'NONE',  ( 0.0000000000000000000, -1.000000000000000000, 0.0000000000000000000 ) ) ;
#56 = DIRECTION ( 'NONE',  ( 3.491481338843133355E-15, -1.224646799147353207E-16, 1.000000000000000000 ) ) ;
#57 = ADVANCED_FACE ( 'NONE', ( #216, #215 ), #66, .T. ) ;
#58 = DIRECTION ( 'NONE',  ( 0.0000000000000000000, 1.000000000000000000, 0.0000000000000000000 ) ) ;
#59 = DIRECTION ( 'NONE',  ( 0.0000000000000000000, 1.000000000000000000, 0.0000000000000000000 ) ) ;
#60 = LOCAL_TIME ( 15, 47, 46.00000000000000000, #123 ) ;
#61 =( NAMED_UNIT ( * ) PLANE_ANGLE_UNIT ( ) SI_UNIT ( $, .RADIAN. ) );
#62 = EDGE_CURVE ( 'NONE', #47, #47, #65, .T. ) ;
#63 = APPROVAL_PERSON_ORGANIZATION ( #84, #212, #52 ) ;
#64 = MANIFOLD_SOLID_BREP ( 'Corps-Déplacer/Copier1[2]', #202 ) ;
#65 = CIRCLE ( 'NONE', #130, 0.2799999999999995270 ) ;
#66 = CONICAL_SURFACE ( 'NONE', #98, 0.4999999999999970024, 0.2617993877991428020 ) ;
#67 = ORIENTED_EDGE ( 'NONE', *, *, #85, .T. ) ;
#68 = MANIFOLD_SOLID_BREP ( 'Corps-Déplacer/Copier1[1]', #75 ) ;
#69 = LOCAL_TIME ( 15, 47, 46.00000000000000000, #208 ) ;
#70 = PERSON_AND_ORGANIZATION_ROLE ( 'design_supplier' ) ;
#71 = PRODUCT_RELATED_PRODUCT_CATEGORY ( 'detail', '', ( #153 ) ) ;
#72 = AXIS2_PLACEMENT_3D ( 'NONE', #118, #76, #79 ) ;
#73 = EDGE_LOOP ( 'NONE', ( #124 ) ) ;
#74 = DATE_AND_TIME ( #178, #1 ) ;
#75 = CLOSED_SHELL ( 'NONE', ( #182, #57, #107, #206, #101 ) ) ;
#76 = DIRECTION ( 'NONE',  ( 3.491481338843133355E-15, -1.224646799147353207E-16, 1.000000000000000000 ) ) ;
#77 = PLANE ( 'NONE',  #176 ) ;
#78 = CIRCLE ( 'NONE', #142, 0.4999999999999985012 ) ;
#79 = DIRECTION ( 'NONE',  ( -3.439160614977218829E-31, -1.000000000000000000, -9.680376540049180364E-17 ) ) ;
#80 = FACE_OUTER_BOUND ( 'NONE', #51, .T. ) ;
#81 = AXIS2_PLACEMENT_3D ( 'NONE', #207, #106, #177 ) ;
#82 = DIRECTION ( 'NONE',  ( -3.491481338843133355E-15, 1.224646799147353207E-16, -1.000000000000000000 ) ) ;
#83 =( LENGTH_UNIT ( ) NAMED_UNIT ( * ) SI_UNIT ( .MILLI., .METRE. ) );
#84 = PERSON_AND_ORGANIZATION ( #2, #161 ) ;
#85 = EDGE_CURVE ( 'NONE', #11, #11, #188, .T. ) ;
#86 = APPROVAL_PERSON_ORGANIZATION ( #22, #180, #211 ) ;
#87 = EDGE_CURVE ( 'NONE', #93, #93, #105, .T. ) ;
#88 = EDGE_LOOP ( 'NONE', ( #191 ) ) ;
#89 = DATE_AND_TIME ( #196, #31 ) ;
#90 = DATE_TIME_ROLE ( 'creation_date' ) ;
#91 = CALENDAR_DATE ( 2021, 7, 10 ) ;
#92 = DATE_TIME_ROLE ( 'classification_date' ) ;
#93 = VERTEX_POINT ( 'NONE', #164 ) ;
#94 = AXIS2_PLACEMENT_3D ( 'NONE', #137, #205, #222 ) ;
#95 = CYLINDRICAL_SURFACE ( 'NONE', #103, 0.2799999999999992495 ) ;
#96 = CONICAL_SURFACE ( 'NONE', #72, 0.2799999999999990274, 1.029744258676649649 ) ;
#97 = PLANE ( 'NONE',  #135 ) ;
#98 = AXIS2_PLACEMENT_3D ( 'NONE', #183, #56, #55 ) ;
#99 = DIRECTION ( 'NONE',  ( 4.275831445896958607E-31, 1.000000000000000000, 1.224646799147353207E-16 ) ) ;
#100 = CARTESIAN_POINT ( 'NONE',  ( 1.571166602479410010E-14, 2.099663695726588951E-33, 4.500000000000000000 ) ) ;
#101 = ADVANCED_FACE ( 'NONE', ( #38 ), #97, .F. ) ;
#102 = CARTESIAN_POINT ( 'NONE',  ( 1.857835088984720087E-14, 0.4999999999999963363, 5.321051177665165000 ) ) ;
#103 = AXIS2_PLACEMENT_3D ( 'NONE', #15, #116, #218 ) ;
#104 = CC_DESIGN_PERSON_AND_ORGANIZATION_ASSIGNMENT ( #53, #121, ( #110 ) ) ;
#105 = CIRCLE ( 'NONE', #219, 0.2799999999999995270 ) ;
#106 = DIRECTION ( 'NONE',  ( -3.491481338843133355E-15, 1.224646799147353207E-16, -1.000000000000000000 ) ) ;
#107 = ADVANCED_FACE ( 'NONE', ( #156, #185 ), #114, .T. ) ;
#108 = AXIS2_PLACEMENT_3D ( 'NONE', #154, #199, #167 ) ;
#109 = PERSON_AND_ORGANIZATION_ROLE ( 'creator' ) ;
#110 = SECURITY_CLASSIFICATION ( '', '', #8 ) ;
#111 =( GEOMETRIC_REPRESENTATION_CONTEXT ( 3 ) GLOBAL_UNCERTAINTY_ASSIGNED_CONTEXT ( ( #149 ) ) GLOBAL_UNIT_ASSIGNED_CONTEXT ( ( #83, #61, #170 ) ) REPRESENTATION_CONTEXT ( 'NONE', 'WORKASPACE' ) );
#112 = PERSON_AND_ORGANIZATION_ROLE ( 'creator' ) ;
#113 = ORIENTED_EDGE ( 'NONE', *, *, #39, .F. ) ;
#114 = CYLINDRICAL_SURFACE ( 'NONE', #171, 0.4999999999999977240 ) ;
#115 = CC_DESIGN_DATE_AND_TIME_ASSIGNMENT ( #74, #90, ( #29 ) ) ;
#116 = DIRECTION ( 'NONE',  ( -3.491481338843133355E-15, 1.224646799147353207E-16, -1.000000000000000000 ) ) ;
#117 = DIRECTION ( 'NONE',  ( 4.275831445896958607E-31, 1.000000000000000000, 1.224646799147353207E-16 ) ) ;
#118 = CARTESIAN_POINT ( 'NONE',  ( 5.874102188025330815E-16, -2.060357694712252175E-17, 0.1682409733277181185 ) ) ;
#119 = APPROVAL_STATUS ( 'not_yet_approved' ) ;
#120 = ORIENTED_EDGE ( 'NONE', *, *, #87, .F. ) ;
#121 = PERSON_AND_ORGANIZATION_ROLE ( 'classification_officer' ) ;
#122 = EDGE_LOOP ( 'NONE', ( #113 ) ) ;
#123 = COORDINATED_UNIVERSAL_TIME_OFFSET ( 1, 0, .AHEAD. ) ;
#124 = ORIENTED_EDGE ( 'NONE', *, *, #87, .T. ) ;
#125 = APPROVAL_STATUS ( 'not_yet_approved' ) ;
#126 = PRODUCT_DEFINITION_SHAPE ( 'NONE', 'NONE',  #29 ) ;
#127 = AXIS2_PLACEMENT_3D ( 'NONE', #186, #44, #9 ) ;
#128 = APPROVAL_DATE_TIME ( #6, #212 ) ;
#129 = CALENDAR_DATE ( 2021, 7, 10 ) ;
#130 = AXIS2_PLACEMENT_3D ( 'NONE', #201, #220, #58 ) ;
#131 = DIRECTION ( 'NONE',  ( -4.275831445896958607E-31, -1.000000000000000000, -1.224646799147353207E-16 ) ) ;
#132 = DIRECTION ( 'NONE',  ( 0.0000000000000000000, 1.000000000000000000, 0.0000000000000000000 ) ) ;
#133 = CARTESIAN_POINT ( 'NONE',  ( 1.047444401652940007E-13, -3.673940397442059178E-15, 30.00000000000000000 ) ) ;
#134 = CARTESIAN_POINT ( 'NONE',  ( 1.043952920314096810E-13, 0.4999999999999947820, 29.89999999999999858 ) ) ;
#135 = AXIS2_PLACEMENT_3D ( 'NONE', #23, #166, #117 ) ;
#136 = EDGE_CURVE ( 'NONE', #140, #140, #46, .T. ) ;
#137 = CARTESIAN_POINT ( 'NONE',  ( 0.0000000000000000000, 0.0000000000000000000, 0.0000000000000000000 ) ) ;
#138 = ADVANCED_BREP_SHAPE_REPRESENTATION ( '38190', ( #68, #64, #94 ), #111 ) ;
#139 = CC_DESIGN_APPROVAL ( #212, ( #29 ) ) ;
#140 = VERTEX_POINT ( 'NONE', #102 ) ;
#141 = CC_DESIGN_PERSON_AND_ORGANIZATION_ASSIGNMENT ( #36, #70, ( #221 ) ) ;
#142 = AXIS2_PLACEMENT_3D ( 'NONE', #144, #21, #32 ) ;
#143 = AXIS2_PLACEMENT_3D ( 'NONE', #24, #200, #132 ) ;
#144 = CARTESIAN_POINT ( 'NONE',  ( 1.043952920314096810E-13, -3.661693929450586610E-15, 29.89999999999999858 ) ) ;
#145 = EDGE_LOOP ( 'NONE', ( #33 ) ) ;
#146 = PERSON_AND_ORGANIZATION ( #2, #161 ) ;
#147 = ORIENTED_EDGE ( 'NONE', *, *, #136, .T. ) ;
#148 = APPROVAL_STATUS ( 'not_yet_approved' ) ;
#149 = UNCERTAINTY_MEASURE_WITH_UNIT (LENGTH_MEASURE( 1.000000000000000082E-05 ), #83, 'distance_accuracy_value', 'NONE');
#150 = SHAPE_DEFINITION_REPRESENTATION ( #126, #138 ) ;
#151 = APPROVAL_ROLE ( '' ) ;
#152 = DIRECTION ( 'NONE',  ( -3.491481338843133355E-15, 1.224646799147353207E-16, -1.000000000000000000 ) ) ;
#153 = PRODUCT ( '38190', '38190', '', ( #159 ) ) ;
#154 = CARTESIAN_POINT ( 'NONE',  ( 1.857835088984720087E-14, -6.516408292826898860E-16, 5.321051177665165000 ) ) ;
#155 = FACE_OUTER_BOUND ( 'NONE', #88, .T. ) ;
#156 = FACE_OUTER_BOUND ( 'NONE', #162, .T. ) ;
#157 = PLANE ( 'NONE',  #127 ) ;
#158 = APPLICATION_CONTEXT ( 'configuration controlled 3d designs of mechanical parts and assemblies' ) ;
#159 = MECHANICAL_CONTEXT ( 'NONE', #158, 'mechanical' ) ;
#160 = CC_DESIGN_PERSON_AND_ORGANIZATION_ASSIGNMENT ( #146, #112, ( #29 ) ) ;
#161 = ORGANIZATION ( 'UNSPECIFIED', 'UNSPECIFIED', '' ) ;
#162 = EDGE_LOOP ( 'NONE', ( #18 ) ) ;
#163 = PERSON_AND_ORGANIZATION ( #2, #161 ) ;
#164 = CARTESIAN_POINT ( 'NONE',  ( 1.571166602479410010E-14, 0.2799999999999990274, 4.500000000000000000 ) ) ;
#165 = FACE_BOUND ( 'NONE', #4, .T. ) ;
#166 = DIRECTION ( 'NONE',  ( -3.491481338843133355E-15, 1.224646799147353207E-16, -1.000000000000000000 ) ) ;
#167 = DIRECTION ( 'NONE',  ( 0.0000000000000000000, 1.000000000000000000, 0.0000000000000000000 ) ) ;
#168 = FACE_OUTER_BOUND ( 'NONE', #122, .T. ) ;
#169 = APPLICATION_PROTOCOL_DEFINITION ( 'international standard', 'config_control_design', 1994, #158 ) ;
#170 =( NAMED_UNIT ( * ) SI_UNIT ( $, .STERADIAN. ) SOLID_ANGLE_UNIT ( ) );
#171 = AXIS2_PLACEMENT_3D ( 'NONE', #28, #30, #99 ) ;
#172 = CC_DESIGN_DATE_AND_TIME_ASSIGNMENT ( #213, #92, ( #110 ) ) ;
#173 = PERSON_AND_ORGANIZATION_ROLE ( 'design_owner' ) ;
#174 = DESIGN_CONTEXT ( 'detailed design', #27, 'design' ) ;
#175 = APPROVAL_DATE_TIME ( #194, #217 ) ;
#176 = AXIS2_PLACEMENT_3D ( 'NONE', #100, #12, #131 ) ;
#177 = DIRECTION ( 'NONE',  ( 3.439160614977218829E-31, 1.000000000000000000, 9.680376540049180364E-17 ) ) ;
#178 = CALENDAR_DATE ( 2021, 7, 10 ) ;
#179 = PERSON_AND_ORGANIZATION ( #2, #161 ) ;
#180 = APPROVAL ( #125, 'UNSPECIFIED' ) ;
#181 = CARTESIAN_POINT ( 'NONE',  ( 1.047444401652940007E-13, 0.3999999999999949707, 30.00000000000000000 ) ) ;
#182 = ADVANCED_FACE ( 'NONE', ( #40 ), #157, .F. ) ;
#183 = CARTESIAN_POINT ( 'NONE',  ( 1.857835088984720087E-14, -6.516408292826898860E-16, 5.321051177665165000 ) ) ;
#184 = FACE_OUTER_BOUND ( 'NONE', #20, .T. ) ;
#185 = FACE_OUTER_BOUND ( 'NONE', #145, .T. ) ;
#186 = CARTESIAN_POINT ( 'NONE',  ( 1.571166602479410010E-14, 2.099663695726588951E-33, 4.500000000000000000 ) ) ;
#187 = CC_DESIGN_APPROVAL ( #180, ( #221 ) ) ;
#188 = CIRCLE ( 'NONE', #143, 0.3999999999999986899 ) ;
#189 = PERSON_AND_ORGANIZATION ( #2, #161 ) ;
#190 = CC_DESIGN_PERSON_AND_ORGANIZATION_ASSIGNMENT ( #189, #173, ( #153 ) ) ;
#191 = ORIENTED_EDGE ( 'NONE', *, *, #39, .T. ) ;
#192 = CIRCLE ( 'NONE', #81, 0.2799999999999990274 ) ;
#193 = ORIENTED_EDGE ( 'NONE', *, *, #62, .T. ) ;
#194 = DATE_AND_TIME ( #91, #60 ) ;
#195 = EDGE_LOOP ( 'NONE', ( #35 ) ) ;
#196 = CALENDAR_DATE ( 2021, 7, 10 ) ;
#197 = ADVANCED_FACE ( 'NONE', ( #168, #14 ), #95, .T. ) ;
#198 = CARTESIAN_POINT ( 'NONE',  ( 1.571166602479410010E-14, -5.510910596163088569E-16, 4.500000000000000000 ) ) ;
#199 = DIRECTION ( 'NONE',  ( -3.491481338843133355E-15, 1.224646799147353207E-16, -1.000000000000000000 ) ) ;
#200 = DIRECTION ( 'NONE',  ( -3.491481338843133355E-15, 1.224646799147353207E-16, -1.000000000000000000 ) ) ;
#201 = CARTESIAN_POINT ( 'NONE',  ( 1.571166602479410010E-14, -5.510910596163088569E-16, 4.500000000000000000 ) ) ;
#202 = CLOSED_SHELL ( 'NONE', ( #45, #197, #43 ) ) ;
#203 = VERTEX_POINT ( 'NONE', #26 ) ;
#204 = LOCAL_TIME ( 15, 47, 46.00000000000000000, #17 ) ;
#205 = DIRECTION ( 'NONE',  ( 0.0000000000000000000, 0.0000000000000000000, 1.000000000000000000 ) ) ;
#206 = ADVANCED_FACE ( 'NONE', ( #184, #165 ), #41, .T. ) ;
#207 = CARTESIAN_POINT ( 'NONE',  ( 5.874102188025330815E-16, -2.060357694712252175E-17, 0.1682409733277181185 ) ) ;
#208 = COORDINATED_UNIVERSAL_TIME_OFFSET ( 1, 0, .AHEAD. ) ;
#209 = EDGE_LOOP ( 'NONE', ( #120 ) ) ;
#210 = EDGE_LOOP ( 'NONE', ( #147 ) ) ;
#211 = APPROVAL_ROLE ( '' ) ;
#212 = APPROVAL ( #119, 'UNSPECIFIED' ) ;
#213 = DATE_AND_TIME ( #34, #69 ) ;
#214 = VERTEX_POINT ( 'NONE', #134 ) ;
#215 = FACE_OUTER_BOUND ( 'NONE', #210, .T. ) ;
#216 = FACE_BOUND ( 'NONE', #209, .T. ) ;
#217 = APPROVAL ( #148, 'UNSPECIFIED' ) ;
#218 = DIRECTION ( 'NONE',  ( 4.275831445896958607E-31, 1.000000000000000000, 1.224646799147353454E-16 ) ) ;
#219 = AXIS2_PLACEMENT_3D ( 'NONE', #198, #152, #42 ) ;
#220 = DIRECTION ( 'NONE',  ( -3.491481338843133355E-15, 1.224646799147353207E-16, -1.000000000000000000 ) ) ;
#221 = PRODUCT_DEFINITION_FORMATION_WITH_SPECIFIED_SOURCE ( 'ANY', '', #153, .NOT_KNOWN. ) ;
#222 = DIRECTION ( 'NONE',  ( 1.000000000000000000, 0.0000000000000000000, 0.0000000000000000000 ) ) ;
#223 = APPLICATION_PROTOCOL_DEFINITION ( 'international standard', 'config_control_design', 1994, #27 ) ;
ENDSEC;
END-ISO-10303-21;
