ISO-10303-21;
HEADER;
FILE_DESCRIPTION (( 'STEP AP203' ),
    '1' );
FILE_NAME ('38188.step',
    '2021-10-07T13:47:46',
    ( '' ),
    ( '' ),
    'SwSTEP 2.0',
    'SolidWorks 2019',
    '' );
FILE_SCHEMA (( 'CONFIG_CONTROL_DESIGN' ));
ENDSEC;

DATA;
#1 = DIRECTION ( 'NONE',  ( 0.0000000000000000000, 1.000000000000000000, 0.0000000000000000000 ) ) ;
#2 = CARTESIAN_POINT ( 'NONE',  ( 1.571166602479410010E-14, 0.2999999999999986011, 4.500000000000000000 ) ) ;
#3 = COORDINATED_UNIVERSAL_TIME_OFFSET ( 1, 0, .AHEAD. ) ;
#4 = DIRECTION ( 'NONE',  ( -3.491481338843133355E-15, 1.224646799147353207E-16, -1.000000000000000000 ) ) ;
#5 = EDGE_LOOP ( 'NONE', ( #182 ) ) ;
#6 = CYLINDRICAL_SURFACE ( 'NONE', #149, 0.2999999999999990452 ) ;
#7 = CIRCLE ( 'NONE', #206, 0.3999999999999986899 ) ;
#8 = ORIENTED_EDGE ( 'NONE', *, *, #130, .F. ) ;
#9 = CC_DESIGN_PERSON_AND_ORGANIZATION_ASSIGNMENT ( #97, #105, ( #128 ) ) ;
#10 = DATE_TIME_ROLE ( 'creation_date' ) ;
#11 = DIRECTION ( 'NONE',  ( -3.491481338843133355E-15, 1.224646799147353207E-16, -1.000000000000000000 ) ) ;
#12 = PLANE ( 'NONE',  #104 ) ;
#13 = PERSON_AND_ORGANIZATION_ROLE ( 'classification_officer' ) ;
#14 = PRODUCT_DEFINITION_SHAPE ( 'NONE', 'NONE',  #128 ) ;
#15 = AXIS2_PLACEMENT_3D ( 'NONE', #211, #54, #1 ) ;
#16 = LOCAL_TIME ( 15, 47, 46.00000000000000000, #18 ) ;
#17 =( NAMED_UNIT ( * ) SI_UNIT ( $, .STERADIAN. ) SOLID_ANGLE_UNIT ( ) );
#18 = COORDINATED_UNIVERSAL_TIME_OFFSET ( 1, 0, .AHEAD. ) ;
#19 = DIRECTION ( 'NONE',  ( -4.275831445896958607E-31, -1.000000000000000000, -1.224646799147353207E-16 ) ) ;
#20 = PERSON ( 'UNSPECIFIED', 'UNSPECIFIED', 'UNSPECIFIED', ('UNSPECIFIED'), ('UNSPECIFIED'), ('UNSPECIFIED') ) ;
#21 = SECURITY_CLASSIFICATION_LEVEL ( 'unclassified' ) ;
#22 = CARTESIAN_POINT ( 'NONE',  ( 1.571166602479410010E-14, -5.510910596163088569E-16, 4.500000000000000000 ) ) ;
#23 = EDGE_LOOP ( 'NONE', ( #196 ) ) ;
#24 = PERSON_AND_ORGANIZATION_ROLE ( 'creator' ) ;
#25 = DIRECTION ( 'NONE',  ( 0.0000000000000000000, -1.000000000000000000, 0.0000000000000000000 ) ) ;
#26 = APPROVAL_DATE_TIME ( #49, #118 ) ;
#27 = APPROVAL_ROLE ( '' ) ;
#28 = APPROVAL_PERSON_ORGANIZATION ( #192, #118, #203 ) ;
#29 = DIRECTION ( 'NONE',  ( -3.491481338843133355E-15, 1.224646799147353207E-16, -1.000000000000000000 ) ) ;
#30 = CC_DESIGN_PERSON_AND_ORGANIZATION_ASSIGNMENT ( #142, #174, ( #94 ) ) ;
#31 = APPROVAL_ROLE ( '' ) ;
#32 = CIRCLE ( 'NONE', #51, 0.2999999999999991562 ) ;
#33 = FACE_OUTER_BOUND ( 'NONE', #87, .T. ) ;
#34 = DIRECTION ( 'NONE',  ( 4.275831445896958607E-31, 1.000000000000000000, 1.224646799147353207E-16 ) ) ;
#35 = APPROVAL_DATE_TIME ( #213, #148 ) ;
#36 = CARTESIAN_POINT ( 'NONE',  ( 1.831774317484237095E-14, -6.424999411312006029E-16, 5.246410161513785475 ) ) ;
#37 = MECHANICAL_CONTEXT ( 'NONE', #114, 'mechanical' ) ;
#38 = DIRECTION ( 'NONE',  ( -3.491481338843133355E-15, 1.224646799147353207E-16, -1.000000000000000000 ) ) ;
#39 = ORIENTED_EDGE ( 'NONE', *, *, #141, .F. ) ;
#40 = COORDINATED_UNIVERSAL_TIME_OFFSET ( 1, 0, .AHEAD. ) ;
#41 = CC_DESIGN_SECURITY_CLASSIFICATION ( #167, ( #94 ) ) ;
#42 = ADVANCED_FACE ( 'NONE', ( #189, #218 ), #215, .T. ) ;
#43 = CC_DESIGN_DATE_AND_TIME_ASSIGNMENT ( #92, #10, ( #128 ) ) ;
#44 = CC_DESIGN_APPROVAL ( #118, ( #94 ) ) ;
#45 = ADVANCED_FACE ( 'NONE', ( #159 ), #12, .T. ) ;
#46 = VERTEX_POINT ( 'NONE', #187 ) ;
#47 = CC_DESIGN_DATE_AND_TIME_ASSIGNMENT ( #126, #194, ( #167 ) ) ;
#48 = UNCERTAINTY_MEASURE_WITH_UNIT (LENGTH_MEASURE( 1.000000000000000082E-05 ), #184, 'distance_accuracy_value', 'NONE');
#49 = DATE_AND_TIME ( #76, #162 ) ;
#50 = FACE_OUTER_BOUND ( 'NONE', #180, .T. ) ;
#51 = AXIS2_PLACEMENT_3D ( 'NONE', #80, #29, #61 ) ;
#52 = CARTESIAN_POINT ( 'NONE',  ( 0.0000000000000000000, 0.0000000000000000000, 0.0000000000000000000 ) ) ;
#53 = FACE_OUTER_BOUND ( 'NONE', #107, .T. ) ;
#54 = DIRECTION ( 'NONE',  ( -3.491481338843133355E-15, 1.224646799147353207E-16, -1.000000000000000000 ) ) ;
#55 = PERSON_AND_ORGANIZATION ( #20, #82 ) ;
#56 = PERSON_AND_ORGANIZATION ( #20, #82 ) ;
#57 = AXIS2_PLACEMENT_3D ( 'NONE', #112, #11, #110 ) ;
#58 = EDGE_CURVE ( 'NONE', #46, #46, #165, .T. ) ;
#59 = LOCAL_TIME ( 15, 47, 46.00000000000000000, #40 ) ;
#60 = SHAPE_DEFINITION_REPRESENTATION ( #14, #221 ) ;
#61 = DIRECTION ( 'NONE',  ( 0.0000000000000000000, 1.000000000000000000, 0.0000000000000000000 ) ) ;
#62 = CIRCLE ( 'NONE', #220, 0.4999999999999970024 ) ;
#63 = CARTESIAN_POINT ( 'NONE',  ( 1.571166602479410010E-14, 2.249639673992772043E-33, 4.500000000000000000 ) ) ;
#64 = AXIS2_PLACEMENT_3D ( 'NONE', #204, #102, #172 ) ;
#65 = AXIS2_PLACEMENT_3D ( 'NONE', #156, #205, #134 ) ;
#66 = CC_DESIGN_PERSON_AND_ORGANIZATION_ASSIGNMENT ( #55, #13, ( #167 ) ) ;
#67 = DIRECTION ( 'NONE',  ( -4.275831445896958607E-31, -1.000000000000000000, -1.224646799147353207E-16 ) ) ;
#68 = APPLICATION_PROTOCOL_DEFINITION ( 'international standard', 'config_control_design', 1994, #120 ) ;
#69 = ADVANCED_FACE ( 'NONE', ( #50 ), #113, .T. ) ;
#70 = ORIENTED_EDGE ( 'NONE', *, *, #195, .F. ) ;
#71 = APPROVAL_PERSON_ORGANIZATION ( #56, #148, #31 ) ;
#72 = PERSON_AND_ORGANIZATION ( #20, #82 ) ;
#73 = CARTESIAN_POINT ( 'NONE',  ( 1.831774317484237095E-14, -6.424999411312006029E-16, 5.246410161513785475 ) ) ;
#74 = ORIENTED_EDGE ( 'NONE', *, *, #58, .T. ) ;
#75 = FACE_BOUND ( 'NONE', #111, .T. ) ;
#76 = CALENDAR_DATE ( 2021, 7, 10 ) ;
#77 = CARTESIAN_POINT ( 'NONE',  ( 0.0000000000000000000, 0.0000000000000000000, 0.0000000000000000000 ) ) ;
#78 = ORIENTED_EDGE ( 'NONE', *, *, #198, .T. ) ;
#79 = CONICAL_SURFACE ( 'NONE', #15, 0.3999999999999986899, 0.7853981633974504994 ) ;
#80 = CARTESIAN_POINT ( 'NONE',  ( 1.571166602479410010E-14, -5.510910596163088569E-16, 4.500000000000000000 ) ) ;
#81 = APPROVAL ( #138, 'UNSPECIFIED' ) ;
#82 = ORGANIZATION ( 'UNSPECIFIED', 'UNSPECIFIED', '' ) ;
#83 = CIRCLE ( 'NONE', #65, 0.2999999999999989342 ) ;
#84 = CLOSED_SHELL ( 'NONE', ( #69, #115, #45 ) ) ;
#85 = PERSON_AND_ORGANIZATION_ROLE ( 'design_owner' ) ;
#86 = DIRECTION ( 'NONE',  ( 0.0000000000000000000, 1.000000000000000000, 0.0000000000000000000 ) ) ;
#87 = EDGE_LOOP ( 'NONE', ( #74 ) ) ;
#88 = CARTESIAN_POINT ( 'NONE',  ( 6.293680915741429043E-16, 0.2999999999999989342, 0.1802581857082694861 ) ) ;
#89 = DIRECTION ( 'NONE',  ( -3.209883240645404620E-31, -1.000000000000000000, -9.035018104045902742E-17 ) ) ;
#90 = CYLINDRICAL_SURFACE ( 'NONE', #57, 0.4999999999999977240 ) ;
#91 = ORIENTED_EDGE ( 'NONE', *, *, #141, .T. ) ;
#92 = DATE_AND_TIME ( #133, #201 ) ;
#93 = CARTESIAN_POINT ( 'NONE',  ( 1.047444401652940007E-13, -3.673940397442059178E-15, 30.00000000000000000 ) ) ;
#94 = PRODUCT_DEFINITION_FORMATION_WITH_SPECIFIED_SOURCE ( 'ANY', '', #197, .NOT_KNOWN. ) ;
#95 =( GEOMETRIC_REPRESENTATION_CONTEXT ( 3 ) GLOBAL_UNCERTAINTY_ASSIGNED_CONTEXT ( ( #48 ) ) GLOBAL_UNIT_ASSIGNED_CONTEXT ( ( #184, #125, #17 ) ) REPRESENTATION_CONTEXT ( 'NONE', 'WORKASPACE' ) );
#96 = EDGE_CURVE ( 'NONE', #98, #98, #83, .T. ) ;
#97 = PERSON_AND_ORGANIZATION ( #20, #82 ) ;
#98 = VERTEX_POINT ( 'NONE', #88 ) ;
#99 = FACE_OUTER_BOUND ( 'NONE', #103, .T. ) ;
#100 = ORIENTED_EDGE ( 'NONE', *, *, #195, .T. ) ;
#101 = PERSON_AND_ORGANIZATION ( #20, #82 ) ;
#102 = DIRECTION ( 'NONE',  ( -3.491481338843133355E-15, 1.224646799147353207E-16, -1.000000000000000000 ) ) ;
#103 = EDGE_LOOP ( 'NONE', ( #78 ) ) ;
#104 = AXIS2_PLACEMENT_3D ( 'NONE', #63, #121, #19 ) ;
#105 = PERSON_AND_ORGANIZATION_ROLE ( 'creator' ) ;
#106 = DIRECTION ( 'NONE',  ( 0.0000000000000000000, 1.000000000000000000, 0.0000000000000000000 ) ) ;
#107 = EDGE_LOOP ( 'NONE', ( #91 ) ) ;
#108 = AXIS2_PLACEMENT_3D ( 'NONE', #22, #38, #106 ) ;
#109 = PERSON_AND_ORGANIZATION ( #20, #82 ) ;
#110 = DIRECTION ( 'NONE',  ( 4.275831445896958607E-31, 1.000000000000000000, 1.224646799147353207E-16 ) ) ;
#111 = EDGE_LOOP ( 'NONE', ( #100 ) ) ;
#112 = CARTESIAN_POINT ( 'NONE',  ( 0.0000000000000000000, 0.0000000000000000000, 0.0000000000000000000 ) ) ;
#113 = CONICAL_SURFACE ( 'NONE', #168, 0.2999999999999989342, 1.029744258676649649 ) ;
#114 = APPLICATION_CONTEXT ( 'configuration controlled 3d designs of mechanical parts and assemblies' ) ;
#115 = ADVANCED_FACE ( 'NONE', ( #185, #99 ), #6, .T. ) ;
#116 = APPROVAL_PERSON_ORGANIZATION ( #72, #81, #27 ) ;
#117 = VERTEX_POINT ( 'NONE', #170 ) ;
#118 = APPROVAL ( #178, 'UNSPECIFIED' ) ;
#119 = VERTEX_POINT ( 'NONE', #155 ) ;
#120 = APPLICATION_CONTEXT ( 'configuration controlled 3d designs of mechanical parts and assemblies' ) ;
#121 = DIRECTION ( 'NONE',  ( 3.491481338843133355E-15, -1.224646799147353207E-16, 1.000000000000000000 ) ) ;
#122 = CALENDAR_DATE ( 2021, 7, 10 ) ;
#123 = DIRECTION ( 'NONE',  ( -3.491481338843133355E-15, 1.224646799147353207E-16, -1.000000000000000000 ) ) ;
#124 = PLANE ( 'NONE',  #150 ) ;
#125 =( NAMED_UNIT ( * ) PLANE_ANGLE_UNIT ( ) SI_UNIT ( $, .RADIAN. ) );
#126 = DATE_AND_TIME ( #181, #59 ) ;
#127 = APPROVAL_DATE_TIME ( #222, #81 ) ;
#128 = PRODUCT_DEFINITION ( 'UNKNOWN', '', #94, #169 ) ;
#129 = LOCAL_TIME ( 15, 47, 46.00000000000000000, #219 ) ;
#130 = EDGE_CURVE ( 'NONE', #117, #117, #62, .T. ) ;
#131 = DIRECTION ( 'NONE',  ( 3.491481338843133355E-15, -1.224646799147353207E-16, 1.000000000000000000 ) ) ;
#132 = CC_DESIGN_APPROVAL ( #81, ( #167 ) ) ;
#133 = CALENDAR_DATE ( 2021, 7, 10 ) ;
#134 = DIRECTION ( 'NONE',  ( 3.209883240645404620E-31, 1.000000000000000000, 9.035018104045902742E-17 ) ) ;
#135 = APPLICATION_PROTOCOL_DEFINITION ( 'international standard', 'config_control_design', 1994, #114 ) ;
#136 = ORIENTED_EDGE ( 'NONE', *, *, #96, .T. ) ;
#137 = CC_DESIGN_APPROVAL ( #148, ( #128 ) ) ;
#138 = APPROVAL_STATUS ( 'not_yet_approved' ) ;
#139 = CARTESIAN_POINT ( 'NONE',  ( 1.047444401652940007E-13, 2.999519565323649872E-33, 30.00000000000000000 ) ) ;
#140 = ORIENTED_EDGE ( 'NONE', *, *, #130, .T. ) ;
#141 = EDGE_CURVE ( 'NONE', #214, #214, #146, .T. ) ;
#142 = PERSON_AND_ORGANIZATION ( #20, #82 ) ;
#143 = DIRECTION ( 'NONE',  ( 0.0000000000000000000, 1.000000000000000000, 0.0000000000000000000 ) ) ;
#144 = CARTESIAN_POINT ( 'NONE',  ( 1.571166602479410010E-14, 0.2999999999999986011, 4.500000000000000000 ) ) ;
#145 = EDGE_LOOP ( 'NONE', ( #140 ) ) ;
#146 = CIRCLE ( 'NONE', #108, 0.2999999999999991562 ) ;
#147 = ADVANCED_FACE ( 'NONE', ( #154 ), #124, .F. ) ;
#148 = APPROVAL ( #158, 'UNSPECIFIED' ) ;
#149 = AXIS2_PLACEMENT_3D ( 'NONE', #52, #123, #34 ) ;
#150 = AXIS2_PLACEMENT_3D ( 'NONE', #139, #4, #209 ) ;
#151 = CARTESIAN_POINT ( 'NONE',  ( 1.571166602479410010E-14, 2.249639673992772043E-33, 4.500000000000000000 ) ) ;
#152 = PRODUCT_RELATED_PRODUCT_CATEGORY ( 'detail', '', ( #197 ) ) ;
#153 = COORDINATED_UNIVERSAL_TIME_OFFSET ( 1, 0, .AHEAD. ) ;
#154 = FACE_OUTER_BOUND ( 'NONE', #207, .T. ) ;
#155 = CARTESIAN_POINT ( 'NONE',  ( 1.047444401652940007E-13, 0.3999999999999949707, 30.00000000000000000 ) ) ;
#156 = CARTESIAN_POINT ( 'NONE',  ( 6.293680915741428057E-16, -2.207526101477413572E-17, 0.1802581857082694583 ) ) ;
#157 = ORIENTED_EDGE ( 'NONE', *, *, #58, .F. ) ;
#158 = APPROVAL_STATUS ( 'not_yet_approved' ) ;
#159 = FACE_OUTER_BOUND ( 'NONE', #23, .T. ) ;
#160 = EDGE_LOOP ( 'NONE', ( #157 ) ) ;
#161 = CC_DESIGN_PERSON_AND_ORGANIZATION_ASSIGNMENT ( #101, #24, ( #94 ) ) ;
#162 = LOCAL_TIME ( 15, 47, 46.00000000000000000, #3 ) ;
#163 = DIRECTION ( 'NONE',  ( -3.491481338843133355E-15, 1.224646799147353207E-16, -1.000000000000000000 ) ) ;
#164 = ADVANCED_FACE ( 'NONE', ( #53 ), #191, .F. ) ;
#165 = CIRCLE ( 'NONE', #64, 0.4999999999999985012 ) ;
#166 = CALENDAR_DATE ( 2021, 7, 10 ) ;
#167 = SECURITY_CLASSIFICATION ( '', '', #21 ) ;
#168 = AXIS2_PLACEMENT_3D ( 'NONE', #179, #176, #89 ) ;
#169 = DESIGN_CONTEXT ( 'detailed design', #120, 'design' ) ;
#170 = CARTESIAN_POINT ( 'NONE',  ( 1.831774317484237095E-14, 0.4999999999999963363, 5.246410161513785475 ) ) ;
#171 = AXIS2_PLACEMENT_3D ( 'NONE', #151, #131, #67 ) ;
#172 = DIRECTION ( 'NONE',  ( 0.0000000000000000000, 1.000000000000000000, 0.0000000000000000000 ) ) ;
#173 = EDGE_LOOP ( 'NONE', ( #39 ) ) ;
#174 = PERSON_AND_ORGANIZATION_ROLE ( 'design_supplier' ) ;
#175 = FACE_OUTER_BOUND ( 'NONE', #177, .T. ) ;
#176 = DIRECTION ( 'NONE',  ( 3.491481338843133355E-15, -1.224646799147353207E-16, 1.000000000000000000 ) ) ;
#177 = EDGE_LOOP ( 'NONE', ( #8 ) ) ;
#178 = APPROVAL_STATUS ( 'not_yet_approved' ) ;
#179 = CARTESIAN_POINT ( 'NONE',  ( 6.293680915741428057E-16, -2.207526101477413572E-17, 0.1802581857082694583 ) ) ;
#180 = EDGE_LOOP ( 'NONE', ( #136 ) ) ;
#181 = CALENDAR_DATE ( 2021, 7, 10 ) ;
#182 = ORIENTED_EDGE ( 'NONE', *, *, #96, .F. ) ;
#183 = AXIS2_PLACEMENT_3D ( 'NONE', #77, #190, #217 ) ;
#184 =( LENGTH_UNIT ( ) NAMED_UNIT ( * ) SI_UNIT ( .MILLI., .METRE. ) );
#185 = FACE_OUTER_BOUND ( 'NONE', #5, .T. ) ;
#186 = FACE_OUTER_BOUND ( 'NONE', #160, .T. ) ;
#187 = CARTESIAN_POINT ( 'NONE',  ( 1.043952920314096810E-13, 0.4999999999999947820, 29.89999999999999858 ) ) ;
#188 = DIRECTION ( 'NONE',  ( -3.491481338843133355E-15, 1.224646799147353207E-16, -1.000000000000000000 ) ) ;
#189 = FACE_BOUND ( 'NONE', #173, .T. ) ;
#190 = DIRECTION ( 'NONE',  ( 0.0000000000000000000, 0.0000000000000000000, 1.000000000000000000 ) ) ;
#191 = PLANE ( 'NONE',  #171 ) ;
#192 = PERSON_AND_ORGANIZATION ( #20, #82 ) ;
#193 = ADVANCED_FACE ( 'NONE', ( #175, #33 ), #90, .T. ) ;
#194 = DATE_TIME_ROLE ( 'classification_date' ) ;
#195 = EDGE_CURVE ( 'NONE', #119, #119, #7, .T. ) ;
#196 = ORIENTED_EDGE ( 'NONE', *, *, #198, .F. ) ;
#197 = PRODUCT ( '38188', '38188', '', ( #37 ) ) ;
#198 = EDGE_CURVE ( 'NONE', #208, #208, #32, .T. ) ;
#199 = CC_DESIGN_PERSON_AND_ORGANIZATION_ASSIGNMENT ( #109, #85, ( #197 ) ) ;
#200 = AXIS2_PLACEMENT_3D ( 'NONE', #36, #210, #25 ) ;
#201 = LOCAL_TIME ( 15, 47, 46.00000000000000000, #153 ) ;
#202 = ADVANCED_FACE ( 'NONE', ( #186, #75 ), #79, .T. ) ;
#203 = APPROVAL_ROLE ( '' ) ;
#204 = CARTESIAN_POINT ( 'NONE',  ( 1.043952920314096810E-13, -3.661693929450586610E-15, 29.89999999999999858 ) ) ;
#205 = DIRECTION ( 'NONE',  ( -3.491481338843133355E-15, 1.224646799147353207E-16, -1.000000000000000000 ) ) ;
#206 = AXIS2_PLACEMENT_3D ( 'NONE', #93, #163, #143 ) ;
#207 = EDGE_LOOP ( 'NONE', ( #70 ) ) ;
#208 = VERTEX_POINT ( 'NONE', #144 ) ;
#209 = DIRECTION ( 'NONE',  ( 4.275831445896958607E-31, 1.000000000000000000, 1.224646799147353207E-16 ) ) ;
#210 = DIRECTION ( 'NONE',  ( 3.491481338843133355E-15, -1.224646799147353207E-16, 1.000000000000000000 ) ) ;
#211 = CARTESIAN_POINT ( 'NONE',  ( 1.047444401652940007E-13, -3.673940397442059178E-15, 30.00000000000000000 ) ) ;
#212 = MANIFOLD_SOLID_BREP ( 'Corps-Déplacer/Copier1[1]', #216 ) ;
#213 = DATE_AND_TIME ( #122, #16 ) ;
#214 = VERTEX_POINT ( 'NONE', #2 ) ;
#215 = CONICAL_SURFACE ( 'NONE', #200, 0.4999999999999970024, 0.2617993877991431351 ) ;
#216 = CLOSED_SHELL ( 'NONE', ( #164, #42, #193, #202, #147 ) ) ;
#217 = DIRECTION ( 'NONE',  ( 1.000000000000000000, 0.0000000000000000000, 0.0000000000000000000 ) ) ;
#218 = FACE_OUTER_BOUND ( 'NONE', #145, .T. ) ;
#219 = COORDINATED_UNIVERSAL_TIME_OFFSET ( 1, 0, .AHEAD. ) ;
#220 = AXIS2_PLACEMENT_3D ( 'NONE', #73, #188, #86 ) ;
#221 = ADVANCED_BREP_SHAPE_REPRESENTATION ( '38188', ( #212, #223, #183 ), #95 ) ;
#222 = DATE_AND_TIME ( #166, #129 ) ;
#223 = MANIFOLD_SOLID_BREP ( 'Corps-Déplacer/Copier1[2]', #84 ) ;
ENDSEC;
END-ISO-10303-21;
