ISO-10303-21;
HEADER;
FILE_DESCRIPTION (( 'STEP AP203' ),
    '1' );
FILE_NAME ('38187.step',
    '2021-10-07T13:47:45',
    ( '' ),
    ( '' ),
    'SwSTEP 2.0',
    'SolidWorks 2019',
    '' );
FILE_SCHEMA (( 'CONFIG_CONTROL_DESIGN' ));
ENDSEC;

DATA;
#1 = DATE_AND_TIME ( #167, #154 ) ;
#2 = CLOSED_SHELL ( 'NONE', ( #32, #223, #169, #97, #204 ) ) ;
#3 = AXIS2_PLACEMENT_3D ( 'NONE', #59, #79, #94 ) ;
#4 = VERTEX_POINT ( 'NONE', #46 ) ;
#5 = EDGE_LOOP ( 'NONE', ( #53 ) ) ;
#6 = ORIENTED_EDGE ( 'NONE', *, *, #141, .T. ) ;
#7 = DIRECTION ( 'NONE',  ( -3.491481338843133355E-15, 1.224646799147353207E-16, -1.000000000000000000 ) ) ;
#8 = CIRCLE ( 'NONE', #221, 0.2849999999999993650 ) ;
#9 = PLANE ( 'NONE',  #196 ) ;
#10 = CARTESIAN_POINT ( 'NONE',  ( 1.047444401652940007E-13, 0.3999999999999949707, 30.00000000000000000 ) ) ;
#11 = DIRECTION ( 'NONE',  ( 4.275831445896957731E-31, 1.000000000000000000, 1.224646799147353207E-16 ) ) ;
#12 = EDGE_CURVE ( 'NONE', #134, #134, #118, .T. ) ;
#13 = FACE_OUTER_BOUND ( 'NONE', #86, .T. ) ;
#14 = CARTESIAN_POINT ( 'NONE',  ( 1.851319896109599576E-14, -6.493556072448176638E-16, 5.302390923627321229 ) ) ;
#15 = AXIS2_PLACEMENT_3D ( 'NONE', #146, #42, #62 ) ;
#16 = CC_DESIGN_DATE_AND_TIME_ASSIGNMENT ( #206, #101, ( #193 ) ) ;
#17 = DATE_AND_TIME ( #137, #22 ) ;
#18 = APPROVAL_DATE_TIME ( #71, #189 ) ;
#19 = PRODUCT_DEFINITION_FORMATION_WITH_SPECIFIED_SOURCE ( 'ANY', '', #147, .NOT_KNOWN. ) ;
#20 = CC_DESIGN_DATE_AND_TIME_ASSIGNMENT ( #1, #121, ( #142 ) ) ;
#21 = EDGE_LOOP ( 'NONE', ( #89 ) ) ;
#22 = LOCAL_TIME ( 15, 47, 45.00000000000000000, #120 ) ;
#23 = ORIENTED_EDGE ( 'NONE', *, *, #100, .F. ) ;
#24 = CARTESIAN_POINT ( 'NONE',  ( 1.047444401652940007E-13, -3.673940397442059178E-15, 30.00000000000000000 ) ) ;
#25 = CYLINDRICAL_SURFACE ( 'NONE', #220, 0.2849999999999990874 ) ;
#26 = FACE_OUTER_BOUND ( 'NONE', #21, .T. ) ;
#27 =( GEOMETRIC_REPRESENTATION_CONTEXT ( 3 ) GLOBAL_UNCERTAINTY_ASSIGNED_CONTEXT ( ( #35 ) ) GLOBAL_UNIT_ASSIGNED_CONTEXT ( ( #187, #153, #184 ) ) REPRESENTATION_CONTEXT ( 'NONE', 'WORKASPACE' ) );
#28 = DIRECTION ( 'NONE',  ( -3.491481338843133355E-15, 1.224646799147353207E-16, -1.000000000000000000 ) ) ;
#29 = DIRECTION ( 'NONE',  ( 0.0000000000000000000, 1.000000000000000000, 0.0000000000000000000 ) ) ;
#30 = APPROVAL_PERSON_ORGANIZATION ( #171, #189, #186 ) ;
#31 = DIRECTION ( 'NONE',  ( 1.000000000000000000, 0.0000000000000000000, 0.0000000000000000000 ) ) ;
#32 = ADVANCED_FACE ( 'NONE', ( #74 ), #58, .F. ) ;
#33 = CC_DESIGN_APPROVAL ( #70, ( #142 ) ) ;
#34 = ORIENTED_EDGE ( 'NONE', *, *, #45, .T. ) ;
#35 = UNCERTAINTY_MEASURE_WITH_UNIT (LENGTH_MEASURE( 1.000000000000000082E-05 ), #187, 'distance_accuracy_value', 'NONE');
#36 = CONICAL_SURFACE ( 'NONE', #91, 0.3999999999999986899, 0.7853981633974504994 ) ;
#37 = EDGE_LOOP ( 'NONE', ( #106 ) ) ;
#38 = VERTEX_POINT ( 'NONE', #162 ) ;
#39 = LOCAL_TIME ( 15, 47, 45.00000000000000000, #155 ) ;
#40 = DIRECTION ( 'NONE',  ( 3.491481338843133355E-15, -1.224646799147353207E-16, 1.000000000000000000 ) ) ;
#41 = ADVANCED_FACE ( 'NONE', ( #199 ), #133, .T. ) ;
#42 = DIRECTION ( 'NONE',  ( -3.491481338843133355E-15, 1.224646799147353207E-16, -1.000000000000000000 ) ) ;
#43 = FACE_OUTER_BOUND ( 'NONE', #139, .T. ) ;
#44 = CARTESIAN_POINT ( 'NONE',  ( 1.043952920314096810E-13, 0.4999999999999947820, 29.89999999999999858 ) ) ;
#45 = EDGE_CURVE ( 'NONE', #144, #144, #209, .T. ) ;
#46 = CARTESIAN_POINT ( 'NONE',  ( 1.851319896109599576E-14, 0.4999999999999963363, 5.302390923627321229 ) ) ;
#47 = PERSON ( 'UNSPECIFIED', 'UNSPECIFIED', 'UNSPECIFIED', ('UNSPECIFIED'), ('UNSPECIFIED'), ('UNSPECIFIED') ) ;
#48 = AXIS2_PLACEMENT_3D ( 'NONE', #160, #7, #194 ) ;
#49 = CALENDAR_DATE ( 2021, 7, 10 ) ;
#50 = MANIFOLD_SOLID_BREP ( 'Corps-Déplacer/Copier1[1]', #2 ) ;
#51 = APPROVAL_ROLE ( '' ) ;
#52 = PERSON_AND_ORGANIZATION ( #47, #213 ) ;
#53 = ORIENTED_EDGE ( 'NONE', *, *, #85, .T. ) ;
#54 = ADVANCED_FACE ( 'NONE', ( #198, #26 ), #25, .T. ) ;
#55 = EDGE_LOOP ( 'NONE', ( #192 ) ) ;
#56 = CONICAL_SURFACE ( 'NONE', #69, 0.4999999999999970024, 0.2617993877991426910 ) ;
#57 = CC_DESIGN_PERSON_AND_ORGANIZATION_ASSIGNMENT ( #52, #152, ( #142 ) ) ;
#58 = PLANE ( 'NONE',  #172 ) ;
#59 = CARTESIAN_POINT ( 'NONE',  ( 1.571166602479410010E-14, -5.510910596163088569E-16, 4.500000000000000000 ) ) ;
#60 = VERTEX_POINT ( 'NONE', #195 ) ;
#61 = AXIS2_PLACEMENT_3D ( 'NONE', #14, #113, #29 ) ;
#62 = DIRECTION ( 'NONE',  ( 3.378824463837270026E-31, 1.000000000000000000, 9.510545372679903267E-17 ) ) ;
#63 = DIRECTION ( 'NONE',  ( 4.275831445896958607E-31, 1.000000000000000000, 1.224646799147353207E-16 ) ) ;
#64 = DIRECTION ( 'NONE',  ( 3.491481338843133355E-15, -1.224646799147353207E-16, 1.000000000000000000 ) ) ;
#65 = AXIS2_PLACEMENT_3D ( 'NONE', #93, #96, #132 ) ;
#66 = APPROVAL_DATE_TIME ( #17, #116 ) ;
#67 = PERSON_AND_ORGANIZATION ( #47, #213 ) ;
#68 = APPROVAL_STATUS ( 'not_yet_approved' ) ;
#69 = AXIS2_PLACEMENT_3D ( 'NONE', #176, #40, #175 ) ;
#70 = APPROVAL ( #68, 'UNSPECIFIED' ) ;
#71 = DATE_AND_TIME ( #168, #39 ) ;
#72 = DESIGN_CONTEXT ( 'detailed design', #191, 'design' ) ;
#73 = CC_DESIGN_APPROVAL ( #189, ( #19 ) ) ;
#74 = FACE_OUTER_BOUND ( 'NONE', #105, .T. ) ;
#75 = DIRECTION ( 'NONE',  ( 0.0000000000000000000, 1.000000000000000000, 0.0000000000000000000 ) ) ;
#76 = DIRECTION ( 'NONE',  ( 3.491481338843133355E-15, -1.224646799147353207E-16, 1.000000000000000000 ) ) ;
#77 = AXIS2_PLACEMENT_3D ( 'NONE', #92, #177, #98 ) ;
#78 = CARTESIAN_POINT ( 'NONE',  ( 1.571166602479410010E-14, -5.510910596163088569E-16, 4.500000000000000000 ) ) ;
#79 = DIRECTION ( 'NONE',  ( -3.491481338843133355E-15, 1.224646799147353207E-16, -1.000000000000000000 ) ) ;
#80 = SECURITY_CLASSIFICATION_LEVEL ( 'unclassified' ) ;
#81 = APPROVAL_STATUS ( 'not_yet_approved' ) ;
#82 = ADVANCED_FACE ( 'NONE', ( #43 ), #111, .T. ) ;
#83 = PERSON_AND_ORGANIZATION ( #47, #213 ) ;
#84 = PERSON_AND_ORGANIZATION_ROLE ( 'creator' ) ;
#85 = EDGE_CURVE ( 'NONE', #60, #60, #122, .T. ) ;
#86 = EDGE_LOOP ( 'NONE', ( #104 ) ) ;
#87 = CC_DESIGN_APPROVAL ( #116, ( #193 ) ) ;
#88 = CALENDAR_DATE ( 2021, 7, 10 ) ;
#89 = ORIENTED_EDGE ( 'NONE', *, *, #140, .T. ) ;
#90 = EDGE_LOOP ( 'NONE', ( #23 ) ) ;
#91 = AXIS2_PLACEMENT_3D ( 'NONE', #24, #165, #164 ) ;
#92 = CARTESIAN_POINT ( 'NONE',  ( 0.0000000000000000000, 0.0000000000000000000, 0.0000000000000000000 ) ) ;
#93 = CARTESIAN_POINT ( 'NONE',  ( 1.047444401652940007E-13, -3.673940397442059178E-15, 30.00000000000000000 ) ) ;
#94 = DIRECTION ( 'NONE',  ( 0.0000000000000000000, 1.000000000000000000, 0.0000000000000000000 ) ) ;
#95 = APPROVAL_PERSON_ORGANIZATION ( #67, #116, #51 ) ;
#96 = DIRECTION ( 'NONE',  ( -3.491481338843133355E-15, 1.224646799147353207E-16, -1.000000000000000000 ) ) ;
#97 = ADVANCED_FACE ( 'NONE', ( #109, #163 ), #36, .T. ) ;
#98 = DIRECTION ( 'NONE',  ( 4.275831445896958607E-31, 1.000000000000000000, 1.224646799147353207E-16 ) ) ;
#99 = PERSON_AND_ORGANIZATION_ROLE ( 'design_owner' ) ;
#100 = EDGE_CURVE ( 'NONE', #38, #38, #112, .T. ) ;
#101 = DATE_TIME_ROLE ( 'creation_date' ) ;
#102 = APPROVAL_STATUS ( 'not_yet_approved' ) ;
#103 = CLOSED_SHELL ( 'NONE', ( #41, #54, #82 ) ) ;
#104 = ORIENTED_EDGE ( 'NONE', *, *, #12, .T. ) ;
#105 = EDGE_LOOP ( 'NONE', ( #143 ) ) ;
#106 = ORIENTED_EDGE ( 'NONE', *, *, #45, .F. ) ;
#107 = APPLICATION_CONTEXT ( 'configuration controlled 3d designs of mechanical parts and assemblies' ) ;
#108 = CARTESIAN_POINT ( 'NONE',  ( 1.571166602479410010E-14, 2.137157690293134296E-33, 4.500000000000000000 ) ) ;
#109 = FACE_OUTER_BOUND ( 'NONE', #173, .T. ) ;
#110 = CYLINDRICAL_SURFACE ( 'NONE', #77, 0.4999999999999977240 ) ;
#111 = PLANE ( 'NONE',  #127 ) ;
#112 = CIRCLE ( 'NONE', #3, 0.2849999999999993650 ) ;
#113 = DIRECTION ( 'NONE',  ( -3.491481338843133355E-15, 1.224646799147353207E-16, -1.000000000000000000 ) ) ;
#114 = PERSON_AND_ORGANIZATION ( #47, #213 ) ;
#115 = PRODUCT_DEFINITION_SHAPE ( 'NONE', 'NONE',  #193 ) ;
#116 = APPROVAL ( #102, 'UNSPECIFIED' ) ;
#117 = DIRECTION ( 'NONE',  ( 0.0000000000000000000, 0.0000000000000000000, 1.000000000000000000 ) ) ;
#118 = CIRCLE ( 'NONE', #48, 0.4999999999999985012 ) ;
#119 = COORDINATED_UNIVERSAL_TIME_OFFSET ( 1, 0, .AHEAD. ) ;
#120 = COORDINATED_UNIVERSAL_TIME_OFFSET ( 1, 0, .AHEAD. ) ;
#121 = DATE_TIME_ROLE ( 'classification_date' ) ;
#122 = CIRCLE ( 'NONE', #15, 0.2849999999999988098 ) ;
#123 = ORIENTED_EDGE ( 'NONE', *, *, #141, .F. ) ;
#124 = CC_DESIGN_PERSON_AND_ORGANIZATION_ASSIGNMENT ( #114, #135, ( #19 ) ) ;
#125 = SHAPE_DEFINITION_REPRESENTATION ( #115, #185 ) ;
#126 = EDGE_LOOP ( 'NONE', ( #6 ) ) ;
#127 = AXIS2_PLACEMENT_3D ( 'NONE', #108, #76, #215 ) ;
#128 = CARTESIAN_POINT ( 'NONE',  ( 1.571166602479410010E-14, 2.137157690293134296E-33, 4.500000000000000000 ) ) ;
#129 = AXIS2_PLACEMENT_3D ( 'NONE', #182, #117, #31 ) ;
#130 = VERTEX_POINT ( 'NONE', #197 ) ;
#131 = CARTESIAN_POINT ( 'NONE',  ( 0.0000000000000000000, 0.0000000000000000000, 0.0000000000000000000 ) ) ;
#132 = DIRECTION ( 'NONE',  ( 0.0000000000000000000, 1.000000000000000000, 0.0000000000000000000 ) ) ;
#133 = CONICAL_SURFACE ( 'NONE', #161, 0.2849999999999988098, 1.029744258676649649 ) ;
#134 = VERTEX_POINT ( 'NONE', #44 ) ;
#135 = PERSON_AND_ORGANIZATION_ROLE ( 'creator' ) ;
#136 = APPROVAL_ROLE ( '' ) ;
#137 = CALENDAR_DATE ( 2021, 7, 10 ) ;
#138 = PERSON_AND_ORGANIZATION_ROLE ( 'design_supplier' ) ;
#139 = EDGE_LOOP ( 'NONE', ( #190 ) ) ;
#140 = EDGE_CURVE ( 'NONE', #130, #130, #8, .T. ) ;
#141 = EDGE_CURVE ( 'NONE', #4, #4, #211, .T. ) ;
#142 = SECURITY_CLASSIFICATION ( '', '', #80 ) ;
#143 = ORIENTED_EDGE ( 'NONE', *, *, #100, .T. ) ;
#144 = VERTEX_POINT ( 'NONE', #10 ) ;
#145 = CARTESIAN_POINT ( 'NONE',  ( 5.978996869954351675E-16, -2.097149796403541291E-17, 0.1712452764228558355 ) ) ;
#146 = CARTESIAN_POINT ( 'NONE',  ( 5.978996869954351675E-16, -2.097149796403541291E-17, 0.1712452764228558355 ) ) ;
#147 = PRODUCT ( '38187', '38187', '', ( #180 ) ) ;
#148 = FACE_OUTER_BOUND ( 'NONE', #37, .T. ) ;
#149 = FACE_BOUND ( 'NONE', #90, .T. ) ;
#150 = PERSON_AND_ORGANIZATION ( #47, #213 ) ;
#151 = COORDINATED_UNIVERSAL_TIME_OFFSET ( 1, 0, .AHEAD. ) ;
#152 = PERSON_AND_ORGANIZATION_ROLE ( 'classification_officer' ) ;
#153 =( NAMED_UNIT ( * ) PLANE_ANGLE_UNIT ( ) SI_UNIT ( $, .RADIAN. ) );
#154 = LOCAL_TIME ( 15, 47, 45.00000000000000000, #202 ) ;
#155 = COORDINATED_UNIVERSAL_TIME_OFFSET ( 1, 0, .AHEAD. ) ;
#156 = DATE_AND_TIME ( #88, #159 ) ;
#157 = APPROVAL_DATE_TIME ( #156, #70 ) ;
#158 = EDGE_LOOP ( 'NONE', ( #123 ) ) ;
#159 = LOCAL_TIME ( 15, 47, 45.00000000000000000, #119 ) ;
#160 = CARTESIAN_POINT ( 'NONE',  ( 1.043952920314096810E-13, -3.661693929450586610E-15, 29.89999999999999858 ) ) ;
#161 = AXIS2_PLACEMENT_3D ( 'NONE', #145, #64, #179 ) ;
#162 = CARTESIAN_POINT ( 'NONE',  ( 1.571166602479410010E-14, 0.2849999999999988098, 4.500000000000000000 ) ) ;
#163 = FACE_BOUND ( 'NONE', #212, .T. ) ;
#164 = DIRECTION ( 'NONE',  ( 0.0000000000000000000, 1.000000000000000000, 0.0000000000000000000 ) ) ;
#165 = DIRECTION ( 'NONE',  ( -3.491481338843133355E-15, 1.224646799147353207E-16, -1.000000000000000000 ) ) ;
#166 = DIRECTION ( 'NONE',  ( -3.491481338843133355E-15, 1.224646799147353207E-16, -1.000000000000000000 ) ) ;
#167 = CALENDAR_DATE ( 2021, 7, 10 ) ;
#168 = CALENDAR_DATE ( 2021, 7, 10 ) ;
#169 = ADVANCED_FACE ( 'NONE', ( #200, #13 ), #110, .T. ) ;
#170 = PERSON_AND_ORGANIZATION ( #47, #213 ) ;
#171 = PERSON_AND_ORGANIZATION ( #47, #213 ) ;
#172 = AXIS2_PLACEMENT_3D ( 'NONE', #128, #217, #178 ) ;
#173 = EDGE_LOOP ( 'NONE', ( #210 ) ) ;
#174 = CC_DESIGN_PERSON_AND_ORGANIZATION_ASSIGNMENT ( #208, #99, ( #147 ) ) ;
#175 = DIRECTION ( 'NONE',  ( 0.0000000000000000000, -1.000000000000000000, 0.0000000000000000000 ) ) ;
#176 = CARTESIAN_POINT ( 'NONE',  ( 1.851319896109599576E-14, -6.493556072448176638E-16, 5.302390923627321229 ) ) ;
#177 = DIRECTION ( 'NONE',  ( -3.491481338843133355E-15, 1.224646799147353207E-16, -1.000000000000000000 ) ) ;
#178 = DIRECTION ( 'NONE',  ( -4.275831445896958607E-31, -1.000000000000000000, -1.224646799147353207E-16 ) ) ;
#179 = DIRECTION ( 'NONE',  ( -3.378824463837270026E-31, -1.000000000000000000, -9.510545372679903267E-17 ) ) ;
#180 = MECHANICAL_CONTEXT ( 'NONE', #107, 'mechanical' ) ;
#181 = APPROVAL_PERSON_ORGANIZATION ( #150, #70, #136 ) ;
#182 = CARTESIAN_POINT ( 'NONE',  ( 0.0000000000000000000, 0.0000000000000000000, 0.0000000000000000000 ) ) ;
#183 = CC_DESIGN_PERSON_AND_ORGANIZATION_ASSIGNMENT ( #170, #84, ( #193 ) ) ;
#184 =( NAMED_UNIT ( * ) SI_UNIT ( $, .STERADIAN. ) SOLID_ANGLE_UNIT ( ) );
#185 = ADVANCED_BREP_SHAPE_REPRESENTATION ( '38187', ( #50, #203, #129 ), #27 ) ;
#186 = APPROVAL_ROLE ( '' ) ;
#187 =( LENGTH_UNIT ( ) NAMED_UNIT ( * ) SI_UNIT ( .MILLI., .METRE. ) );
#188 = LOCAL_TIME ( 15, 47, 45.00000000000000000, #151 ) ;
#189 = APPROVAL ( #81, 'UNSPECIFIED' ) ;
#190 = ORIENTED_EDGE ( 'NONE', *, *, #140, .F. ) ;
#191 = APPLICATION_CONTEXT ( 'configuration controlled 3d designs of mechanical parts and assemblies' ) ;
#192 = ORIENTED_EDGE ( 'NONE', *, *, #85, .F. ) ;
#193 = PRODUCT_DEFINITION ( 'UNKNOWN', '', #19, #72 ) ;
#194 = DIRECTION ( 'NONE',  ( 0.0000000000000000000, 1.000000000000000000, 0.0000000000000000000 ) ) ;
#195 = CARTESIAN_POINT ( 'NONE',  ( 5.978996869954352661E-16, 0.2849999999999988098, 0.1712452764228558633 ) ) ;
#196 = AXIS2_PLACEMENT_3D ( 'NONE', #214, #218, #63 ) ;
#197 = CARTESIAN_POINT ( 'NONE',  ( 1.571166602479410010E-14, 0.2849999999999988098, 4.500000000000000000 ) ) ;
#198 = FACE_OUTER_BOUND ( 'NONE', #55, .T. ) ;
#199 = FACE_OUTER_BOUND ( 'NONE', #5, .T. ) ;
#200 = FACE_OUTER_BOUND ( 'NONE', #158, .T. ) ;
#201 = PRODUCT_RELATED_PRODUCT_CATEGORY ( 'detail', '', ( #147 ) ) ;
#202 = COORDINATED_UNIVERSAL_TIME_OFFSET ( 1, 0, .AHEAD. ) ;
#203 = MANIFOLD_SOLID_BREP ( 'Corps-Déplacer/Copier1[2]', #103 ) ;
#204 = ADVANCED_FACE ( 'NONE', ( #148 ), #9, .F. ) ;
#205 = CC_DESIGN_PERSON_AND_ORGANIZATION_ASSIGNMENT ( #83, #138, ( #19 ) ) ;
#206 = DATE_AND_TIME ( #49, #188 ) ;
#207 = APPLICATION_PROTOCOL_DEFINITION ( 'international standard', 'config_control_design', 1994, #107 ) ;
#208 = PERSON_AND_ORGANIZATION ( #47, #213 ) ;
#209 = CIRCLE ( 'NONE', #65, 0.3999999999999986899 ) ;
#210 = ORIENTED_EDGE ( 'NONE', *, *, #12, .F. ) ;
#211 = CIRCLE ( 'NONE', #61, 0.4999999999999970024 ) ;
#212 = EDGE_LOOP ( 'NONE', ( #34 ) ) ;
#213 = ORGANIZATION ( 'UNSPECIFIED', 'UNSPECIFIED', '' ) ;
#214 = CARTESIAN_POINT ( 'NONE',  ( 1.047444401652940007E-13, 2.999519565323649872E-33, 30.00000000000000000 ) ) ;
#215 = DIRECTION ( 'NONE',  ( -4.275831445896958607E-31, -1.000000000000000000, -1.224646799147353207E-16 ) ) ;
#216 = CC_DESIGN_SECURITY_CLASSIFICATION ( #142, ( #19 ) ) ;
#217 = DIRECTION ( 'NONE',  ( 3.491481338843133355E-15, -1.224646799147353207E-16, 1.000000000000000000 ) ) ;
#218 = DIRECTION ( 'NONE',  ( -3.491481338843133355E-15, 1.224646799147353207E-16, -1.000000000000000000 ) ) ;
#219 = FACE_OUTER_BOUND ( 'NONE', #126, .T. ) ;
#220 = AXIS2_PLACEMENT_3D ( 'NONE', #131, #28, #11 ) ;
#221 = AXIS2_PLACEMENT_3D ( 'NONE', #78, #166, #75 ) ;
#222 = APPLICATION_PROTOCOL_DEFINITION ( 'international standard', 'config_control_design', 1994, #191 ) ;
#223 = ADVANCED_FACE ( 'NONE', ( #149, #219 ), #56, .T. ) ;
ENDSEC;
END-ISO-10303-21;
