ISO-10303-21;
HEADER;
FILE_DESCRIPTION (( 'STEP AP203' ),
    '1' );
FILE_NAME ('38182.step',
    '2021-10-07T13:47:44',
    ( '' ),
    ( '' ),
    'SwSTEP 2.0',
    'SolidWorks 2019',
    '' );
FILE_SCHEMA (( 'CONFIG_CONTROL_DESIGN' ));
ENDSEC;

DATA;
#1 = CARTESIAN_POINT ( 'NONE',  ( 2.137654950255533418E-14, -7.497884245829417519E-16, 6.122487113059648323 ) ) ;
#2 = AXIS2_PLACEMENT_3D ( 'NONE', #151, #184, #17 ) ;
#3 = PERSON_AND_ORGANIZATION ( #146, #80 ) ;
#4 = PERSON_AND_ORGANIZATION ( #146, #80 ) ;
#5 = PERSON_AND_ORGANIZATION ( #146, #80 ) ;
#6 = CLOSED_SHELL ( 'NONE', ( #123, #89, #216, #153, #166 ) ) ;
#7 = EDGE_LOOP ( 'NONE', ( #10 ) ) ;
#8 = CALENDAR_DATE ( 2021, 7, 10 ) ;
#9 = CC_DESIGN_DATE_AND_TIME_ASSIGNMENT ( #156, #107, ( #147 ) ) ;
#10 = ORIENTED_EDGE ( 'NONE', *, *, #38, .T. ) ;
#11 = AXIS2_PLACEMENT_3D ( 'NONE', #183, #30, #77 ) ;
#12 = EDGE_CURVE ( 'NONE', #189, #189, #157, .T. ) ;
#13 = FACE_OUTER_BOUND ( 'NONE', #199, .T. ) ;
#14 = CALENDAR_DATE ( 2021, 7, 10 ) ;
#15 = PLANE ( 'NONE',  #98 ) ;
#16 = AXIS2_PLACEMENT_3D ( 'NONE', #120, #207, #155 ) ;
#17 = DIRECTION ( 'NONE',  ( 0.0000000000000000000, 1.000000000000000000, 0.0000000000000000000 ) ) ;
#18 = EDGE_CURVE ( 'NONE', #103, #103, #95, .T. ) ;
#19 = FACE_OUTER_BOUND ( 'NONE', #148, .T. ) ;
#20 = CIRCLE ( 'NONE', #64, 0.4999999999999970579 ) ;
#21 = VERTEX_POINT ( 'NONE', #71 ) ;
#22 = APPLICATION_PROTOCOL_DEFINITION ( 'international standard', 'config_control_design', 1994, #88 ) ;
#23 = AXIS2_PLACEMENT_3D ( 'NONE', #33, #51, #219 ) ;
#24 = PERSON_AND_ORGANIZATION_ROLE ( 'design_supplier' ) ;
#25 = APPROVAL_ROLE ( '' ) ;
#26 = CARTESIAN_POINT ( 'NONE',  ( 7.552417098889706963E-16, -2.649031321772893760E-17, 0.2163098228499231446 ) ) ;
#27 = APPROVAL_ROLE ( '' ) ;
#28 = ORIENTED_EDGE ( 'NONE', *, *, #18, .T. ) ;
#29 = ORIENTED_EDGE ( 'NONE', *, *, #195, .F. ) ;
#30 = DIRECTION ( 'NONE',  ( -3.491481338843133355E-15, 1.224646799147353207E-16, -1.000000000000000000 ) ) ;
#31 = DIRECTION ( 'NONE',  ( 3.491481338843133355E-15, -1.224646799147353207E-16, 1.000000000000000000 ) ) ;
#32 = DIRECTION ( 'NONE',  ( 0.0000000000000000000, 1.000000000000000000, 0.0000000000000000000 ) ) ;
#33 = CARTESIAN_POINT ( 'NONE',  ( 0.0000000000000000000, 0.0000000000000000000, 0.0000000000000000000 ) ) ;
#34 = DIRECTION ( 'NONE',  ( -4.275831445896958607E-31, -1.000000000000000000, -1.224646799147353207E-16 ) ) ;
#35 = CONICAL_SURFACE ( 'NONE', #2, 0.3999999999999986899, 0.7853981633974504994 ) ;
#36 = CARTESIAN_POINT ( 'NONE',  ( 1.043952920314096810E-13, -3.661693929450586610E-15, 29.89999999999999858 ) ) ;
#37 = APPROVAL_STATUS ( 'not_yet_approved' ) ;
#38 = EDGE_CURVE ( 'NONE', #152, #152, #194, .T. ) ;
#39 = APPROVAL_DATE_TIME ( #128, #138 ) ;
#40 = APPROVAL_PERSON_ORGANIZATION ( #5, #60, #72 ) ;
#41 = COORDINATED_UNIVERSAL_TIME_OFFSET ( 1, 0, .AHEAD. ) ;
#42 = DATE_TIME_ROLE ( 'classification_date' ) ;
#43 = CC_DESIGN_PERSON_AND_ORGANIZATION_ASSIGNMENT ( #3, #55, ( #147 ) ) ;
#44 = APPLICATION_CONTEXT ( 'configuration controlled 3d designs of mechanical parts and assemblies' ) ;
#45 =( NAMED_UNIT ( * ) SI_UNIT ( $, .STERADIAN. ) SOLID_ANGLE_UNIT ( ) );
#46 = EDGE_LOOP ( 'NONE', ( #182 ) ) ;
#47 = PRODUCT_DEFINITION_FORMATION_WITH_SPECIFIED_SOURCE ( 'ANY', '', #175, .NOT_KNOWN. ) ;
#48 = CARTESIAN_POINT ( 'NONE',  ( 1.955229549752154679E-14, 2.699567608791325767E-33, 5.599999999999999645 ) ) ;
#49 = DIRECTION ( 'NONE',  ( -3.491481338843133355E-15, 1.224646799147353207E-16, -1.000000000000000000 ) ) ;
#50 = UNCERTAINTY_MEASURE_WITH_UNIT (LENGTH_MEASURE( 1.000000000000000082E-05 ), #57, 'distance_accuracy_value', 'NONE');
#51 = DIRECTION ( 'NONE',  ( -3.491481338843133355E-15, 1.224646799147353207E-16, -1.000000000000000000 ) ) ;
#52 = DIRECTION ( 'NONE',  ( 0.0000000000000000000, 1.000000000000000000, 0.0000000000000000000 ) ) ;
#53 = LOCAL_TIME ( 15, 47, 44.00000000000000000, #56 ) ;
#54 = FACE_OUTER_BOUND ( 'NONE', #46, .T. ) ;
#55 = PERSON_AND_ORGANIZATION_ROLE ( 'creator' ) ;
#56 = COORDINATED_UNIVERSAL_TIME_OFFSET ( 1, 0, .AHEAD. ) ;
#57 =( LENGTH_UNIT ( ) NAMED_UNIT ( * ) SI_UNIT ( .MILLI., .METRE. ) );
#58 = CC_DESIGN_APPROVAL ( #127, ( #117 ) ) ;
#59 = APPROVAL_STATUS ( 'not_yet_approved' ) ;
#60 = APPROVAL ( #59, 'UNSPECIFIED' ) ;
#61 = PERSON_AND_ORGANIZATION ( #146, #80 ) ;
#62 = ORIENTED_EDGE ( 'NONE', *, *, #12, .T. ) ;
#63 = ORIENTED_EDGE ( 'NONE', *, *, #121, .F. ) ;
#64 = AXIS2_PLACEMENT_3D ( 'NONE', #186, #169, #149 ) ;
#65 = DIRECTION ( 'NONE',  ( -3.491481338843133355E-15, 1.224646799147353207E-16, -1.000000000000000000 ) ) ;
#66 = AXIS2_PLACEMENT_3D ( 'NONE', #112, #214, #193 ) ;
#67 = FACE_OUTER_BOUND ( 'NONE', #111, .T. ) ;
#68 = FACE_OUTER_BOUND ( 'NONE', #81, .T. ) ;
#69 = CARTESIAN_POINT ( 'NONE',  ( 2.137654950255533418E-14, 0.4999999999999963363, 6.122487113059648323 ) ) ;
#70 = LOCAL_TIME ( 15, 47, 44.00000000000000000, #196 ) ;
#71 = CARTESIAN_POINT ( 'NONE',  ( 1.043952920314096810E-13, 0.4999999999999947820, 29.89999999999999858 ) ) ;
#72 = APPROVAL_ROLE ( '' ) ;
#73 = PERSON_AND_ORGANIZATION_ROLE ( 'classification_officer' ) ;
#74 = CALENDAR_DATE ( 2021, 7, 10 ) ;
#75 = EDGE_LOOP ( 'NONE', ( #167 ) ) ;
#76 = APPROVAL_PERSON_ORGANIZATION ( #4, #138, #25 ) ;
#77 = DIRECTION ( 'NONE',  ( 0.0000000000000000000, 1.000000000000000000, 0.0000000000000000000 ) ) ;
#78 = DATE_AND_TIME ( #8, #142 ) ;
#79 = CC_DESIGN_PERSON_AND_ORGANIZATION_ASSIGNMENT ( #61, #94, ( #175 ) ) ;
#80 = ORGANIZATION ( 'UNSPECIFIED', 'UNSPECIFIED', '' ) ;
#81 = EDGE_LOOP ( 'NONE', ( #29 ) ) ;
#82 = CYLINDRICAL_SURFACE ( 'NONE', #23, 0.3599999999999987654 ) ;
#83 = CC_DESIGN_PERSON_AND_ORGANIZATION_ASSIGNMENT ( #159, #73, ( #117 ) ) ;
#84 = DIRECTION ( 'NONE',  ( -3.491481338843133355E-15, 1.224646799147353207E-16, -1.000000000000000000 ) ) ;
#85 = AXIS2_PLACEMENT_3D ( 'NONE', #26, #134, #115 ) ;
#86 = DIRECTION ( 'NONE',  ( -3.491481338843133355E-15, 1.224646799147353207E-16, -1.000000000000000000 ) ) ;
#87 = FACE_OUTER_BOUND ( 'NONE', #164, .T. ) ;
#88 = APPLICATION_CONTEXT ( 'configuration controlled 3d designs of mechanical parts and assemblies' ) ;
#89 = ADVANCED_FACE ( 'NONE', ( #173, #13 ), #135, .T. ) ;
#90 = DIRECTION ( 'NONE',  ( 3.491481338843133355E-15, -1.224646799147353207E-16, 1.000000000000000000 ) ) ;
#91 = DESIGN_CONTEXT ( 'detailed design', #88, 'design' ) ;
#92 = AXIS2_PLACEMENT_3D ( 'NONE', #124, #90, #34 ) ;
#93 = SECURITY_CLASSIFICATION_LEVEL ( 'unclassified' ) ;
#94 = PERSON_AND_ORGANIZATION_ROLE ( 'design_owner' ) ;
#95 = CIRCLE ( 'NONE', #11, 0.3599999999999990430 ) ;
#96 = EDGE_LOOP ( 'NONE', ( #63 ) ) ;
#97 = PRODUCT_RELATED_PRODUCT_CATEGORY ( 'detail', '', ( #175 ) ) ;
#98 = AXIS2_PLACEMENT_3D ( 'NONE', #220, #86, #99 ) ;
#99 = DIRECTION ( 'NONE',  ( 4.275831445896958607E-31, 1.000000000000000000, 1.224646799147353207E-16 ) ) ;
#100 = PLANE ( 'NONE',  #140 ) ;
#101 = FACE_BOUND ( 'NONE', #7, .T. ) ;
#102 = CONICAL_SURFACE ( 'NONE', #161, 0.3599999999999984324, 1.029744258676649649 ) ;
#103 = VERTEX_POINT ( 'NONE', #174 ) ;
#104 = PRODUCT_DEFINITION_SHAPE ( 'NONE', 'NONE',  #147 ) ;
#105 = CARTESIAN_POINT ( 'NONE',  ( 7.552417098889708935E-16, 0.3599999999999984324, 0.2163098228499232001 ) ) ;
#106 = PERSON_AND_ORGANIZATION ( #146, #80 ) ;
#107 = DATE_TIME_ROLE ( 'creation_date' ) ;
#108 = AXIS2_PLACEMENT_3D ( 'NONE', #36, #84, #192 ) ;
#109 = CALENDAR_DATE ( 2021, 7, 10 ) ;
#110 = PERSON_AND_ORGANIZATION ( #146, #80 ) ;
#111 = EDGE_LOOP ( 'NONE', ( #217 ) ) ;
#112 = CARTESIAN_POINT ( 'NONE',  ( 0.0000000000000000000, 0.0000000000000000000, 0.0000000000000000000 ) ) ;
#113 = EDGE_LOOP ( 'NONE', ( #62 ) ) ;
#114 = EDGE_CURVE ( 'NONE', #139, #139, #20, .T. ) ;
#115 = DIRECTION ( 'NONE',  ( 5.349805401075678016E-31, 1.000000000000000000, 1.505836350674318151E-16 ) ) ;
#116 = FACE_OUTER_BOUND ( 'NONE', #96, .T. ) ;
#117 = SECURITY_CLASSIFICATION ( '', '', #93 ) ;
#118 = FACE_OUTER_BOUND ( 'NONE', #75, .T. ) ;
#119 = FACE_OUTER_BOUND ( 'NONE', #162, .T. ) ;
#120 = CARTESIAN_POINT ( 'NONE',  ( 0.0000000000000000000, 0.0000000000000000000, 0.0000000000000000000 ) ) ;
#121 = EDGE_CURVE ( 'NONE', #21, #21, #125, .T. ) ;
#122 =( GEOMETRIC_REPRESENTATION_CONTEXT ( 3 ) GLOBAL_UNCERTAINTY_ASSIGNED_CONTEXT ( ( #50 ) ) GLOBAL_UNIT_ASSIGNED_CONTEXT ( ( #57, #198, #45 ) ) REPRESENTATION_CONTEXT ( 'NONE', 'WORKASPACE' ) );
#123 = ADVANCED_FACE ( 'NONE', ( #19 ), #100, .F. ) ;
#124 = CARTESIAN_POINT ( 'NONE',  ( 1.955229549752154679E-14, 2.699567608791325767E-33, 5.599999999999999645 ) ) ;
#125 = CIRCLE ( 'NONE', #108, 0.4999999999999985012 ) ;
#126 = MECHANICAL_CONTEXT ( 'NONE', #44, 'mechanical' ) ;
#127 = APPROVAL ( #180, 'UNSPECIFIED' ) ;
#128 = DATE_AND_TIME ( #74, #206 ) ;
#129 = VERTEX_POINT ( 'NONE', #212 ) ;
#130 = CC_DESIGN_APPROVAL ( #60, ( #147 ) ) ;
#131 = DATE_AND_TIME ( #213, #70 ) ;
#132 = EDGE_LOOP ( 'NONE', ( #201 ) ) ;
#133 = MANIFOLD_SOLID_BREP ( 'Corps-Déplacer/Copier1[2]', #145 ) ;
#134 = DIRECTION ( 'NONE',  ( -3.491481338843133355E-15, 1.224646799147353207E-16, -1.000000000000000000 ) ) ;
#135 = CONICAL_SURFACE ( 'NONE', #179, 0.4999999999999970579, 0.2617993877991430796 ) ;
#136 = PLANE ( 'NONE',  #92 ) ;
#137 = CYLINDRICAL_SURFACE ( 'NONE', #16, 0.4999999999999978351 ) ;
#138 = APPROVAL ( #37, 'UNSPECIFIED' ) ;
#139 = VERTEX_POINT ( 'NONE', #69 ) ;
#140 = AXIS2_PLACEMENT_3D ( 'NONE', #48, #222, #204 ) ;
#141 = CARTESIAN_POINT ( 'NONE',  ( 1.047444401652940007E-13, 0.3999999999999949707, 30.00000000000000000 ) ) ;
#142 = LOCAL_TIME ( 15, 47, 44.00000000000000000, #41 ) ;
#143 = COORDINATED_UNIVERSAL_TIME_OFFSET ( 1, 0, .AHEAD. ) ;
#144 = PERSON_AND_ORGANIZATION_ROLE ( 'creator' ) ;
#145 = CLOSED_SHELL ( 'NONE', ( #158, #208, #202 ) ) ;
#146 = PERSON ( 'UNSPECIFIED', 'UNSPECIFIED', 'UNSPECIFIED', ('UNSPECIFIED'), ('UNSPECIFIED'), ('UNSPECIFIED') ) ;
#147 = PRODUCT_DEFINITION ( 'UNKNOWN', '', #47, #91 ) ;
#148 = EDGE_LOOP ( 'NONE', ( #28 ) ) ;
#149 = DIRECTION ( 'NONE',  ( 0.0000000000000000000, 1.000000000000000000, 0.0000000000000000000 ) ) ;
#150 = FACE_OUTER_BOUND ( 'NONE', #113, .T. ) ;
#151 = CARTESIAN_POINT ( 'NONE',  ( 1.047444401652940007E-13, -3.673940397442059178E-15, 30.00000000000000000 ) ) ;
#152 = VERTEX_POINT ( 'NONE', #141 ) ;
#153 = ADVANCED_FACE ( 'NONE', ( #116, #101 ), #35, .T. ) ;
#154 = LOCAL_TIME ( 15, 47, 44.00000000000000000, #160 ) ;
#155 = DIRECTION ( 'NONE',  ( 4.275831445896958607E-31, 1.000000000000000000, 1.224646799147353207E-16 ) ) ;
#156 = DATE_AND_TIME ( #109, #53 ) ;
#157 = CIRCLE ( 'NONE', #85, 0.3599999999999984324 ) ;
#158 = ADVANCED_FACE ( 'NONE', ( #150 ), #102, .T. ) ;
#159 = PERSON_AND_ORGANIZATION ( #146, #80 ) ;
#160 = COORDINATED_UNIVERSAL_TIME_OFFSET ( 1, 0, .AHEAD. ) ;
#161 = AXIS2_PLACEMENT_3D ( 'NONE', #205, #203, #188 ) ;
#162 = EDGE_LOOP ( 'NONE', ( #218 ) ) ;
#163 = APPLICATION_PROTOCOL_DEFINITION ( 'international standard', 'config_control_design', 1994, #44 ) ;
#164 = EDGE_LOOP ( 'NONE', ( #181 ) ) ;
#165 = DATE_AND_TIME ( #14, #154 ) ;
#166 = ADVANCED_FACE ( 'NONE', ( #54 ), #15, .F. ) ;
#167 = ORIENTED_EDGE ( 'NONE', *, *, #121, .T. ) ;
#168 = CC_DESIGN_APPROVAL ( #138, ( #47 ) ) ;
#169 = DIRECTION ( 'NONE',  ( -3.491481338843133355E-15, 1.224646799147353207E-16, -1.000000000000000000 ) ) ;
#170 = SHAPE_DEFINITION_REPRESENTATION ( #104, #211 ) ;
#171 = CARTESIAN_POINT ( 'NONE',  ( 1.047444401652940007E-13, -3.673940397442059178E-15, 30.00000000000000000 ) ) ;
#172 = CC_DESIGN_PERSON_AND_ORGANIZATION_ASSIGNMENT ( #106, #144, ( #47 ) ) ;
#173 = FACE_BOUND ( 'NONE', #132, .T. ) ;
#174 = CARTESIAN_POINT ( 'NONE',  ( 1.955229549752154679E-14, 0.3599999999999983213, 5.599999999999999645 ) ) ;
#175 = PRODUCT ( '38182', '38182', '', ( #126 ) ) ;
#176 = CC_DESIGN_PERSON_AND_ORGANIZATION_ASSIGNMENT ( #178, #24, ( #47 ) ) ;
#177 = DIRECTION ( 'NONE',  ( 0.0000000000000000000, -1.000000000000000000, 0.0000000000000000000 ) ) ;
#178 = PERSON_AND_ORGANIZATION ( #146, #80 ) ;
#179 = AXIS2_PLACEMENT_3D ( 'NONE', #1, #31, #177 ) ;
#180 = APPROVAL_STATUS ( 'not_yet_approved' ) ;
#181 = ORIENTED_EDGE ( 'NONE', *, *, #195, .T. ) ;
#182 = ORIENTED_EDGE ( 'NONE', *, *, #38, .F. ) ;
#183 = CARTESIAN_POINT ( 'NONE',  ( 1.955229549752154679E-14, -6.858022075225177566E-16, 5.599999999999999645 ) ) ;
#184 = DIRECTION ( 'NONE',  ( -3.491481338843133355E-15, 1.224646799147353207E-16, -1.000000000000000000 ) ) ;
#185 = CC_DESIGN_SECURITY_CLASSIFICATION ( #117, ( #47 ) ) ;
#186 = CARTESIAN_POINT ( 'NONE',  ( 2.137654950255533418E-14, -7.497884245829417519E-16, 6.122487113059648323 ) ) ;
#187 = APPROVAL_DATE_TIME ( #165, #127 ) ;
#188 = DIRECTION ( 'NONE',  ( -5.349805401075678016E-31, -1.000000000000000000, -1.505836350674318151E-16 ) ) ;
#189 = VERTEX_POINT ( 'NONE', #105 ) ;
#190 = CIRCLE ( 'NONE', #215, 0.3599999999999990430 ) ;
#191 = APPROVAL_PERSON_ORGANIZATION ( #110, #127, #27 ) ;
#192 = DIRECTION ( 'NONE',  ( 0.0000000000000000000, 1.000000000000000000, 0.0000000000000000000 ) ) ;
#193 = DIRECTION ( 'NONE',  ( 1.000000000000000000, 0.0000000000000000000, 0.0000000000000000000 ) ) ;
#194 = CIRCLE ( 'NONE', #200, 0.3999999999999986899 ) ;
#195 = EDGE_CURVE ( 'NONE', #129, #129, #190, .T. ) ;
#196 = COORDINATED_UNIVERSAL_TIME_OFFSET ( 1, 0, .AHEAD. ) ;
#197 = ORIENTED_EDGE ( 'NONE', *, *, #114, .T. ) ;
#198 =( NAMED_UNIT ( * ) PLANE_ANGLE_UNIT ( ) SI_UNIT ( $, .RADIAN. ) );
#199 = EDGE_LOOP ( 'NONE', ( #197 ) ) ;
#200 = AXIS2_PLACEMENT_3D ( 'NONE', #171, #65, #32 ) ;
#201 = ORIENTED_EDGE ( 'NONE', *, *, #18, .F. ) ;
#202 = ADVANCED_FACE ( 'NONE', ( #68 ), #136, .T. ) ;
#203 = DIRECTION ( 'NONE',  ( 3.491481338843133355E-15, -1.224646799147353207E-16, 1.000000000000000000 ) ) ;
#204 = DIRECTION ( 'NONE',  ( -4.275831445896958607E-31, -1.000000000000000000, -1.224646799147353207E-16 ) ) ;
#205 = CARTESIAN_POINT ( 'NONE',  ( 7.552417098889706963E-16, -2.649031321772893760E-17, 0.2163098228499231446 ) ) ;
#206 = LOCAL_TIME ( 15, 47, 44.00000000000000000, #143 ) ;
#207 = DIRECTION ( 'NONE',  ( -3.491481338843133355E-15, 1.224646799147353207E-16, -1.000000000000000000 ) ) ;
#208 = ADVANCED_FACE ( 'NONE', ( #67, #87 ), #82, .T. ) ;
#209 = MANIFOLD_SOLID_BREP ( 'Corps-Déplacer/Copier1[1]', #6 ) ;
#210 = APPROVAL_DATE_TIME ( #78, #60 ) ;
#211 = ADVANCED_BREP_SHAPE_REPRESENTATION ( '38182', ( #209, #133, #66 ), #122 ) ;
#212 = CARTESIAN_POINT ( 'NONE',  ( 1.955229549752154679E-14, 0.3599999999999983213, 5.599999999999999645 ) ) ;
#213 = CALENDAR_DATE ( 2021, 7, 10 ) ;
#214 = DIRECTION ( 'NONE',  ( 0.0000000000000000000, 0.0000000000000000000, 1.000000000000000000 ) ) ;
#215 = AXIS2_PLACEMENT_3D ( 'NONE', #221, #49, #52 ) ;
#216 = ADVANCED_FACE ( 'NONE', ( #119, #118 ), #137, .T. ) ;
#217 = ORIENTED_EDGE ( 'NONE', *, *, #12, .F. ) ;
#218 = ORIENTED_EDGE ( 'NONE', *, *, #114, .F. ) ;
#219 = DIRECTION ( 'NONE',  ( 4.275831445896958607E-31, 1.000000000000000000, 1.224646799147353207E-16 ) ) ;
#220 = CARTESIAN_POINT ( 'NONE',  ( 1.047444401652940007E-13, 2.999519565323649872E-33, 30.00000000000000000 ) ) ;
#221 = CARTESIAN_POINT ( 'NONE',  ( 1.955229549752154679E-14, -6.858022075225177566E-16, 5.599999999999999645 ) ) ;
#222 = DIRECTION ( 'NONE',  ( 3.491481338843133355E-15, -1.224646799147353207E-16, 1.000000000000000000 ) ) ;
#223 = CC_DESIGN_DATE_AND_TIME_ASSIGNMENT ( #131, #42, ( #117 ) ) ;
ENDSEC;
END-ISO-10303-21;
