ISO-10303-21;
HEADER;
FILE_DESCRIPTION (( 'STEP AP203' ),
    '1' );
FILE_NAME ('38141.step',
    '2021-12-06T12:59:36',
    ( '' ),
    ( '' ),
    'SwSTEP 2.0',
    'SolidWorks 2019',
    '' );
FILE_SCHEMA (( 'CONFIG_CONTROL_DESIGN' ));
ENDSEC;

DATA;
#1 = APPLICATION_PROTOCOL_DEFINITION ( 'international standard', 'config_control_design', 1994, #10 ) ;
#2 = CALENDAR_DATE ( 2021, 6, 12 ) ;
#3 = PERSON_AND_ORGANIZATION ( #58, #48 ) ;
#4 = ADVANCED_BREP_SHAPE_REPRESENTATION ( '38141', ( #148, #92 ), #143 ) ;
#5 = LOCAL_TIME ( 13, 59, 36.00000000000000000, #31 ) ;
#6 = DATE_TIME_ROLE ( 'classification_date' ) ;
#7 = CC_DESIGN_APPROVAL ( #54, ( #59 ) ) ;
#8 = DIRECTION ( 'NONE',  ( -3.491481338843133355E-15, 2.041077998578921601E-16, -1.000000000000000000 ) ) ;
#9 = CARTESIAN_POINT ( 'NONE',  ( 0.0000000000000000000, 0.0000000000000000000, 0.0000000000000000000 ) ) ;
#10 = APPLICATION_CONTEXT ( 'configuration controlled 3d designs of mechanical parts and assemblies' ) ;
#11 = ORIENTED_EDGE ( 'NONE', *, *, #110, .T. ) ;
#12 = FACE_OUTER_BOUND ( 'NONE', #71, .T. ) ;
#13 = APPROVAL_STATUS ( 'not_yet_approved' ) ;
#14 = CARTESIAN_POINT ( 'NONE',  ( 4.189777606611758449E-15, -2.449293598294705428E-16, 1.199999999999999734 ) ) ;
#15 = CARTESIAN_POINT ( 'NONE',  ( 0.0000000000000000000, 0.0000000000000000000, 0.0000000000000000000 ) ) ;
#16 = PERSON_AND_ORGANIZATION_ROLE ( 'creator' ) ;
#17 = PRODUCT_DEFINITION ( 'UNKNOWN', '', #59, #160 ) ;
#18 = PERSON_AND_ORGANIZATION_ROLE ( 'creator' ) ;
#19 = COORDINATED_UNIVERSAL_TIME_OFFSET ( 1, 0, .AHEAD. ) ;
#20 = PRODUCT_DEFINITION_SHAPE ( 'NONE', 'NONE',  #17 ) ;
#21 = CYLINDRICAL_SURFACE ( 'NONE', #83, 10.00000000000000000 ) ;
#22 = ORIENTED_EDGE ( 'NONE', *, *, #35, .T. ) ;
#23 = CC_DESIGN_APPROVAL ( #123, ( #17 ) ) ;
#24 = FACE_OUTER_BOUND ( 'NONE', #145, .T. ) ;
#25 = LOCAL_TIME ( 13, 59, 36.00000000000000000, #105 ) ;
#26 = FACE_BOUND ( 'NONE', #62, .T. ) ;
#27 = VERTEX_POINT ( 'NONE', #112 ) ;
#28 = PERSON_AND_ORGANIZATION ( #58, #48 ) ;
#29 = AXIS2_PLACEMENT_3D ( 'NONE', #14, #113, #99 ) ;
#30 = CALENDAR_DATE ( 2021, 6, 12 ) ;
#31 = COORDINATED_UNIVERSAL_TIME_OFFSET ( 1, 0, .AHEAD. ) ;
#32 = CC_DESIGN_PERSON_AND_ORGANIZATION_ASSIGNMENT ( #133, #156, ( #122 ) ) ;
#33 = ORIENTED_EDGE ( 'NONE', *, *, #102, .F. ) ;
#34 = FACE_OUTER_BOUND ( 'NONE', #126, .T. ) ;
#35 = EDGE_CURVE ( 'NONE', #27, #27, #94, .T. ) ;
#36 = APPLICATION_CONTEXT ( 'configuration controlled 3d designs of mechanical parts and assemblies' ) ;
#37 = AXIS2_PLACEMENT_3D ( 'NONE', #135, #8, #60 ) ;
#38 = EDGE_LOOP ( 'NONE', ( #150 ) ) ;
#39 = CARTESIAN_POINT ( 'NONE',  ( 4.189777606611756871E-15, 2.499999999999999556, 1.199999999999999289 ) ) ;
#40 = DIRECTION ( 'NONE',  ( -3.491481338843133355E-15, 2.041077998578921601E-16, -1.000000000000000000 ) ) ;
#41 = FACE_OUTER_BOUND ( 'NONE', #124, .T. ) ;
#42 = DIRECTION ( 'NONE',  ( 7.126385743161596802E-31, 1.000000000000000000, 2.041077998578921601E-16 ) ) ;
#43 = CALENDAR_DATE ( 2021, 6, 12 ) ;
#44 = CC_DESIGN_PERSON_AND_ORGANIZATION_ASSIGNMENT ( #69, #90, ( #59 ) ) ;
#45 = DATE_AND_TIME ( #30, #153 ) ;
#46 = CIRCLE ( 'NONE', #74, 10.00000000000000000 ) ;
#47 = ORIENTED_EDGE ( 'NONE', *, *, #110, .F. ) ;
#48 = ORGANIZATION ( 'UNSPECIFIED', 'UNSPECIFIED', '' ) ;
#49 = FACE_BOUND ( 'NONE', #147, .T. ) ;
#50 = AXIS2_PLACEMENT_3D ( 'NONE', #65, #137, #86 ) ;
#51 = DIRECTION ( 'NONE',  ( -7.126385743161595926E-31, -1.000000000000000000, -2.041077998578921601E-16 ) ) ;
#52 = APPROVAL_ROLE ( '' ) ;
#53 = PLANE ( 'NONE',  #63 ) ;
#54 = APPROVAL ( #104, 'UNSPECIFIED' ) ;
#55 = DATE_AND_TIME ( #2, #70 ) ;
#56 = PERSON_AND_ORGANIZATION ( #58, #48 ) ;
#57 = DATE_TIME_ROLE ( 'creation_date' ) ;
#58 = PERSON ( 'UNSPECIFIED', 'UNSPECIFIED', 'UNSPECIFIED', ('UNSPECIFIED'), ('UNSPECIFIED'), ('UNSPECIFIED') ) ;
#59 = PRODUCT_DEFINITION_FORMATION_WITH_SPECIFIED_SOURCE ( 'ANY', '', #144, .NOT_KNOWN. ) ;
#60 = DIRECTION ( 'NONE',  ( 7.126385743161596802E-31, 1.000000000000000000, 2.041077998578921355E-16 ) ) ;
#61 = ADVANCED_FACE ( 'NONE', ( #96, #34 ), #21, .T. ) ;
#62 = EDGE_LOOP ( 'NONE', ( #84 ) ) ;
#63 = AXIS2_PLACEMENT_3D ( 'NONE', #162, #40, #127 ) ;
#64 = DIRECTION ( 'NONE',  ( 1.000000000000000000, 0.0000000000000000000, 0.0000000000000000000 ) ) ;
#65 = CARTESIAN_POINT ( 'NONE',  ( 0.0000000000000000000, 0.0000000000000000000, 0.0000000000000000000 ) ) ;
#66 = CARTESIAN_POINT ( 'NONE',  ( 4.189777606611760026E-15, 2.499999999999999556, 1.200000000000000178 ) ) ;
#67 = APPROVAL_ROLE ( '' ) ;
#68 = APPROVAL_DATE_TIME ( #157, #54 ) ;
#69 = PERSON_AND_ORGANIZATION ( #58, #48 ) ;
#70 = LOCAL_TIME ( 13, 59, 36.00000000000000000, #116 ) ;
#71 = EDGE_LOOP ( 'NONE', ( #47 ) ) ;
#72 = PRODUCT_RELATED_PRODUCT_CATEGORY ( 'detail', '', ( #144 ) ) ;
#73 = ADVANCED_FACE ( 'NONE', ( #49, #149 ), #138, .T. ) ;
#74 = AXIS2_PLACEMENT_3D ( 'NONE', #129, #85, #139 ) ;
#75 = VERTEX_POINT ( 'NONE', #66 ) ;
#76 = EDGE_CURVE ( 'NONE', #101, #101, #46, .T. ) ;
#77 =( LENGTH_UNIT ( ) NAMED_UNIT ( * ) SI_UNIT ( .MILLI., .METRE. ) );
#78 = CARTESIAN_POINT ( 'NONE',  ( -7.126385743161596627E-30, 4.165999396282937070E-31, -2.041077998578921502E-15 ) ) ;
#79 = APPROVAL_PERSON_ORGANIZATION ( #56, #54, #132 ) ;
#80 = DATE_AND_TIME ( #43, #5 ) ;
#81 = SECURITY_CLASSIFICATION_LEVEL ( 'unclassified' ) ;
#82 = CLOSED_SHELL ( 'NONE', ( #134, #61, #73, #165 ) ) ;
#83 = AXIS2_PLACEMENT_3D ( 'NONE', #9, #109, #161 ) ;
#84 = ORIENTED_EDGE ( 'NONE', *, *, #35, .F. ) ;
#85 = DIRECTION ( 'NONE',  ( -3.491481338843133355E-15, 2.041077998578921601E-16, -1.000000000000000000 ) ) ;
#86 = DIRECTION ( 'NONE',  ( 7.126385743161596802E-31, 1.000000000000000000, 2.041077998578921355E-16 ) ) ;
#87 = DIRECTION ( 'NONE',  ( -3.491481338843133355E-15, 2.041077998578921601E-16, -1.000000000000000000 ) ) ;
#88 = DIRECTION ( 'NONE',  ( 0.0000000000000000000, 0.0000000000000000000, 1.000000000000000000 ) ) ;
#89 = APPROVAL_DATE_TIME ( #45, #123 ) ;
#90 = PERSON_AND_ORGANIZATION_ROLE ( 'design_supplier' ) ;
#91 = SHAPE_DEFINITION_REPRESENTATION ( #20, #4 ) ;
#92 = AXIS2_PLACEMENT_3D ( 'NONE', #15, #88, #64 ) ;
#93 = ORIENTED_EDGE ( 'NONE', *, *, #76, .F. ) ;
#94 = CIRCLE ( 'NONE', #37, 2.499999999999999556 ) ;
#95 = CIRCLE ( 'NONE', #29, 2.500000000000000000 ) ;
#96 = FACE_OUTER_BOUND ( 'NONE', #38, .T. ) ;
#97 = CC_DESIGN_PERSON_AND_ORGANIZATION_ASSIGNMENT ( #3, #16, ( #59 ) ) ;
#98 = APPLICATION_PROTOCOL_DEFINITION ( 'international standard', 'config_control_design', 1994, #36 ) ;
#99 = DIRECTION ( 'NONE',  ( 6.162975822039154730E-31, 1.000000000000000000, 1.734723475976807094E-16 ) ) ;
#100 =( NAMED_UNIT ( * ) PLANE_ANGLE_UNIT ( ) SI_UNIT ( $, .RADIAN. ) );
#101 = VERTEX_POINT ( 'NONE', #130 ) ;
#102 = EDGE_CURVE ( 'NONE', #166, #166, #106, .T. ) ;
#103 = APPROVAL_DATE_TIME ( #55, #169 ) ;
#104 = APPROVAL_STATUS ( 'not_yet_approved' ) ;
#105 = COORDINATED_UNIVERSAL_TIME_OFFSET ( 1, 0, .AHEAD. ) ;
#106 = CIRCLE ( 'NONE', #114, 10.00000000000000000 ) ;
#107 = ORIENTED_EDGE ( 'NONE', *, *, #102, .T. ) ;
#108 = AXIS2_PLACEMENT_3D ( 'NONE', #39, #115, #51 ) ;
#109 = DIRECTION ( 'NONE',  ( -3.491481338843133355E-15, 2.041077998578921601E-16, -1.000000000000000000 ) ) ;
#110 = EDGE_CURVE ( 'NONE', #75, #75, #95, .T. ) ;
#111 = PERSON_AND_ORGANIZATION_ROLE ( 'design_owner' ) ;
#112 = CARTESIAN_POINT ( 'NONE',  ( 0.0000000000000000000, 2.499999999999999556, 0.0000000000000000000 ) ) ;
#113 = DIRECTION ( 'NONE',  ( -3.491481338843133355E-15, 2.041077998578921601E-16, -1.000000000000000000 ) ) ;
#114 = AXIS2_PLACEMENT_3D ( 'NONE', #78, #87, #42 ) ;
#115 = DIRECTION ( 'NONE',  ( 3.491481338843133355E-15, -2.041077998578921601E-16, 1.000000000000000000 ) ) ;
#116 = COORDINATED_UNIVERSAL_TIME_OFFSET ( 1, 0, .AHEAD. ) ;
#117 = CC_DESIGN_DATE_AND_TIME_ASSIGNMENT ( #141, #6, ( #122 ) ) ;
#118 = CALENDAR_DATE ( 2021, 6, 12 ) ;
#119 = CALENDAR_DATE ( 2021, 6, 12 ) ;
#120 = CC_DESIGN_APPROVAL ( #169, ( #122 ) ) ;
#121 = UNCERTAINTY_MEASURE_WITH_UNIT (LENGTH_MEASURE( 1.000000000000000082E-05 ), #77, 'distance_accuracy_value', 'NONE');
#122 = SECURITY_CLASSIFICATION ( '', '', #81 ) ;
#123 = APPROVAL ( #13, 'UNSPECIFIED' ) ;
#124 = EDGE_LOOP ( 'NONE', ( #107 ) ) ;
#125 = APPROVAL_PERSON_ORGANIZATION ( #151, #123, #52 ) ;
#126 = EDGE_LOOP ( 'NONE', ( #33 ) ) ;
#127 = DIRECTION ( 'NONE',  ( 7.126385743161595926E-31, 1.000000000000000000, 2.041077998578921601E-16 ) ) ;
#128 = APPROVAL_PERSON_ORGANIZATION ( #158, #169, #67 ) ;
#129 = CARTESIAN_POINT ( 'NONE',  ( 4.189777606611753715E-15, -2.449293598294701977E-16, 1.199999999999998179 ) ) ;
#130 = CARTESIAN_POINT ( 'NONE',  ( 4.189777606611760026E-15, 10.00000000000000000, 1.200000000000000178 ) ) ;
#131 = APPROVAL_STATUS ( 'not_yet_approved' ) ;
#132 = APPROVAL_ROLE ( '' ) ;
#133 = PERSON_AND_ORGANIZATION ( #58, #48 ) ;
#134 = ADVANCED_FACE ( 'NONE', ( #41, #26 ), #53, .T. ) ;
#135 = CARTESIAN_POINT ( 'NONE',  ( -1.781596435790398806E-30, 1.041499849070734048E-31, -5.102694996447302770E-16 ) ) ;
#136 = EDGE_LOOP ( 'NONE', ( #93 ) ) ;
#137 = DIRECTION ( 'NONE',  ( -3.491481338843133355E-15, 2.041077998578921601E-16, -1.000000000000000000 ) ) ;
#138 = PLANE ( 'NONE',  #108 ) ;
#139 = DIRECTION ( 'NONE',  ( 6.933347799794049071E-31, 1.000000000000000000, 1.951563910473907981E-16 ) ) ;
#140 = LOCAL_TIME ( 13, 59, 36.00000000000000000, #19 ) ;
#141 = DATE_AND_TIME ( #119, #140 ) ;
#142 = PERSON_AND_ORGANIZATION ( #58, #48 ) ;
#143 =( GEOMETRIC_REPRESENTATION_CONTEXT ( 3 ) GLOBAL_UNCERTAINTY_ASSIGNED_CONTEXT ( ( #121 ) ) GLOBAL_UNIT_ASSIGNED_CONTEXT ( ( #77, #100, #168 ) ) REPRESENTATION_CONTEXT ( 'NONE', 'WORKASPACE' ) );
#144 = PRODUCT ( '38141', '38141', '', ( #164 ) ) ;
#145 = EDGE_LOOP ( 'NONE', ( #22 ) ) ;
#146 = CC_DESIGN_PERSON_AND_ORGANIZATION_ASSIGNMENT ( #142, #18, ( #17 ) ) ;
#147 = EDGE_LOOP ( 'NONE', ( #11 ) ) ;
#148 = MANIFOLD_SOLID_BREP ( 'Corps-Déplacer/Copier1', #82 ) ;
#149 = FACE_OUTER_BOUND ( 'NONE', #136, .T. ) ;
#150 = ORIENTED_EDGE ( 'NONE', *, *, #76, .T. ) ;
#151 = PERSON_AND_ORGANIZATION ( #58, #48 ) ;
#152 = COORDINATED_UNIVERSAL_TIME_OFFSET ( 1, 0, .AHEAD. ) ;
#153 = LOCAL_TIME ( 13, 59, 36.00000000000000000, #152 ) ;
#154 = CYLINDRICAL_SURFACE ( 'NONE', #50, 2.499999999999999556 ) ;
#155 = CARTESIAN_POINT ( 'NONE',  ( 0.0000000000000000000, 10.00000000000000000, 0.0000000000000000000 ) ) ;
#156 = PERSON_AND_ORGANIZATION_ROLE ( 'classification_officer' ) ;
#157 = DATE_AND_TIME ( #118, #25 ) ;
#158 = PERSON_AND_ORGANIZATION ( #58, #48 ) ;
#159 = CC_DESIGN_PERSON_AND_ORGANIZATION_ASSIGNMENT ( #28, #111, ( #144 ) ) ;
#160 = DESIGN_CONTEXT ( 'detailed design', #36, 'design' ) ;
#161 = DIRECTION ( 'NONE',  ( 7.126385743161596802E-31, 1.000000000000000000, 2.041077998578921601E-16 ) ) ;
#162 = CARTESIAN_POINT ( 'NONE',  ( -2.672394653685599085E-30, 2.499999999999999556, -7.654042494670957606E-16 ) ) ;
#163 = CC_DESIGN_SECURITY_CLASSIFICATION ( #122, ( #59 ) ) ;
#164 = MECHANICAL_CONTEXT ( 'NONE', #10, 'mechanical' ) ;
#165 = ADVANCED_FACE ( 'NONE', ( #24, #12 ), #154, .F. ) ;
#166 = VERTEX_POINT ( 'NONE', #155 ) ;
#167 = CC_DESIGN_DATE_AND_TIME_ASSIGNMENT ( #80, #57, ( #17 ) ) ;
#168 =( NAMED_UNIT ( * ) SI_UNIT ( $, .STERADIAN. ) SOLID_ANGLE_UNIT ( ) );
#169 = APPROVAL ( #131, 'UNSPECIFIED' ) ;
ENDSEC;
END-ISO-10303-21;
