ISO-10303-21;
HEADER;
FILE_DESCRIPTION (( 'STEP AP203' ),
    '1' );
FILE_NAME ('381179.step',
    '2021-12-16T07:03:50',
    ( '' ),
    ( '' ),
    'SwSTEP 2.0',
    'SolidWorks 2019',
    '' );
FILE_SCHEMA (( 'CONFIG_CONTROL_DESIGN' ));
ENDSEC;

DATA;
#1 = COORDINATED_UNIVERSAL_TIME_OFFSET ( 1, 0, .AHEAD. ) ;
#2 = SHAPE_DEFINITION_REPRESENTATION ( #141, #39 ) ;
#3 = AXIS2_PLACEMENT_3D ( 'NONE', #26, #178, #175 ) ;
#4 = AXIS2_PLACEMENT_3D ( 'NONE', #36, #35, #192 ) ;
#5 = CC_DESIGN_SECURITY_CLASSIFICATION ( #47, ( #199 ) ) ;
#6 = PERSON_AND_ORGANIZATION ( #80, #24 ) ;
#7 = DIRECTION ( 'NONE',  ( -4.275831445896958607E-31, -1.000000000000000000, -1.224646799147353207E-16 ) ) ;
#8 = ADVANCED_FACE ( 'NONE', ( #165, #156 ), #34, .T. ) ;
#9 = EDGE_LOOP ( 'NONE', ( #27 ) ) ;
#10 = LOCAL_TIME ( 8, 3, 50.00000000000000000, #137 ) ;
#11 = CC_DESIGN_PERSON_AND_ORGANIZATION_ASSIGNMENT ( #167, #154, ( #47 ) ) ;
#12 = AXIS2_PLACEMENT_3D ( 'NONE', #194, #176, #195 ) ;
#13 = VERTEX_POINT ( 'NONE', #68 ) ;
#14 = UNCERTAINTY_MEASURE_WITH_UNIT (LENGTH_MEASURE( 1.000000000000000082E-05 ), #99, 'distance_accuracy_value', 'NONE');
#15 = PERSON_AND_ORGANIZATION ( #80, #24 ) ;
#16 = ORIENTED_EDGE ( 'NONE', *, *, #108, .T. ) ;
#17 = DIRECTION ( 'NONE',  ( 3.081487911019583058E-31, 1.000000000000000000, 8.673617379884051496E-17 ) ) ;
#18 = CIRCLE ( 'NONE', #126, 4.999999999999991118 ) ;
#19 =( NAMED_UNIT ( * ) PLANE_ANGLE_UNIT ( ) SI_UNIT ( $, .RADIAN. ) );
#20 = DATE_AND_TIME ( #150, #83 ) ;
#21 =( GEOMETRIC_REPRESENTATION_CONTEXT ( 3 ) GLOBAL_UNCERTAINTY_ASSIGNED_CONTEXT ( ( #14 ) ) GLOBAL_UNIT_ASSIGNED_CONTEXT ( ( #99, #19, #131 ) ) REPRESENTATION_CONTEXT ( 'NONE', 'WORKASPACE' ) );
#22 = DIRECTION ( 'NONE',  ( 4.275831445896958607E-31, 1.000000000000000000, 1.224646799147353207E-16 ) ) ;
#23 = DIRECTION ( 'NONE',  ( 3.491481338843133355E-15, -1.224646799147353207E-16, 1.000000000000000000 ) ) ;
#24 = ORGANIZATION ( 'UNSPECIFIED', 'UNSPECIFIED', '' ) ;
#25 = EDGE_CURVE ( 'NONE', #160, #160, #188, .T. ) ;
#26 = CARTESIAN_POINT ( 'NONE',  ( 2.758270257686075477E-13, -9.674709713264090904E-15, 79.00000000000000000 ) ) ;
#27 = ORIENTED_EDGE ( 'NONE', *, *, #186, .T. ) ;
#28 = DESIGN_CONTEXT ( 'detailed design', #101, 'design' ) ;
#29 = COORDINATED_UNIVERSAL_TIME_OFFSET ( 1, 0, .AHEAD. ) ;
#30 = CONICAL_SURFACE ( 'NONE', #88, 4.000000000000000888, 0.7853981633974473908 ) ;
#31 = APPROVAL_DATE_TIME ( #33, #67 ) ;
#32 = APPROVAL_STATUS ( 'not_yet_approved' ) ;
#33 = DATE_AND_TIME ( #125, #115 ) ;
#34 = CYLINDRICAL_SURFACE ( 'NONE', #65, 25.00000000000000000 ) ;
#35 = DIRECTION ( 'NONE',  ( -3.491481338843133355E-15, 1.224646799147353207E-16, -1.000000000000000000 ) ) ;
#36 = CARTESIAN_POINT ( 'NONE',  ( 1.047444401652939375E-14, -1.301042606982602363E-16, 2.999999999999998224 ) ) ;
#37 = PLANE ( 'NONE',  #4 ) ;
#38 = APPROVAL_PERSON_ORGANIZATION ( #48, #171, #90 ) ;
#39 = ADVANCED_BREP_SHAPE_REPRESENTATION ( '381179', ( #202, #130, #12 ), #21 ) ;
#40 = FACE_OUTER_BOUND ( 'NONE', #107, .T. ) ;
#41 = EDGE_LOOP ( 'NONE', ( #117 ) ) ;
#42 = APPROVAL_ROLE ( '' ) ;
#43 = ADVANCED_FACE ( 'NONE', ( #140 ), #52, .F. ) ;
#44 = ORIENTED_EDGE ( 'NONE', *, *, #64, .F. ) ;
#45 = CALENDAR_DATE ( 2021, 16, 12 ) ;
#46 = AXIS2_PLACEMENT_3D ( 'NONE', #158, #79, #157 ) ;
#47 = SECURITY_CLASSIFICATION ( '', '', #169 ) ;
#48 = PERSON_AND_ORGANIZATION ( #80, #24 ) ;
#49 = ADVANCED_FACE ( 'NONE', ( #63 ), #37, .F. ) ;
#50 = FACE_OUTER_BOUND ( 'NONE', #196, .T. ) ;
#51 = DIRECTION ( 'NONE',  ( 3.491481338843133355E-15, -1.224646799147353207E-16, 1.000000000000000000 ) ) ;
#52 = PLANE ( 'NONE',  #177 ) ;
#53 = CARTESIAN_POINT ( 'NONE',  ( 2.793185071074506684E-13, -9.797174393178826052E-15, 80.00000000000000000 ) ) ;
#54 = CARTESIAN_POINT ( 'NONE',  ( 1.047444401652939849E-14, -3.673940397442059375E-16, 2.999999999999999556 ) ) ;
#55 = EDGE_LOOP ( 'NONE', ( #69 ) ) ;
#56 = DIRECTION ( 'NONE',  ( 4.275831445896959482E-31, 1.000000000000000000, 1.224646799147353454E-16 ) ) ;
#57 = ADVANCED_FACE ( 'NONE', ( #50 ), #190, .F. ) ;
#58 = DIRECTION ( 'NONE',  ( -3.491481338843133355E-15, 1.224646799147353207E-16, -1.000000000000000000 ) ) ;
#59 = EDGE_LOOP ( 'NONE', ( #166 ) ) ;
#60 = CALENDAR_DATE ( 2021, 16, 12 ) ;
#61 = AXIS2_PLACEMENT_3D ( 'NONE', #77, #66, #159 ) ;
#62 = DATE_TIME_ROLE ( 'creation_date' ) ;
#63 = FACE_OUTER_BOUND ( 'NONE', #59, .T. ) ;
#64 = EDGE_CURVE ( 'NONE', #104, #104, #92, .T. ) ;
#65 = AXIS2_PLACEMENT_3D ( 'NONE', #128, #127, #22 ) ;
#66 = DIRECTION ( 'NONE',  ( -3.491481338843133355E-15, 1.224646799147353207E-16, -1.000000000000000000 ) ) ;
#67 = APPROVAL ( #145, 'UNSPECIFIED' ) ;
#68 = CARTESIAN_POINT ( 'NONE',  ( 2.758270257686075477E-13, 4.999999999999990230, 79.00000000000000000 ) ) ;
#69 = ORIENTED_EDGE ( 'NONE', *, *, #64, .T. ) ;
#70 = DIRECTION ( 'NONE',  ( -3.491481338843133355E-15, 1.224646799147353207E-16, -1.000000000000000000 ) ) ;
#71 = CLOSED_SHELL ( 'NONE', ( #57, #139, #147, #170 ) ) ;
#72 = FACE_OUTER_BOUND ( 'NONE', #9, .T. ) ;
#73 = ORIENTED_EDGE ( 'NONE', *, *, #81, .F. ) ;
#74 = CARTESIAN_POINT ( 'NONE',  ( 3.206884121463988654E-30, 25.00000000000000000, 9.184881172890810817E-16 ) ) ;
#75 = ORIENTED_EDGE ( 'NONE', *, *, #25, .T. ) ;
#76 = CC_DESIGN_PERSON_AND_ORGANIZATION_ASSIGNMENT ( #136, #109, ( #199 ) ) ;
#77 = CARTESIAN_POINT ( 'NONE',  ( 1.047444401652939218E-14, -3.673940397442057403E-16, 2.999999999999997780 ) ) ;
#78 = CARTESIAN_POINT ( 'NONE',  ( -7.482694493278408388E-30, 2.624575923761692405E-31, -2.143128880579301961E-15 ) ) ;
#79 = DIRECTION ( 'NONE',  ( -3.491481338843133355E-15, 1.224646799147353207E-16, -1.000000000000000000 ) ) ;
#80 = PERSON ( 'UNSPECIFIED', 'UNSPECIFIED', 'UNSPECIFIED', ('UNSPECIFIED'), ('UNSPECIFIED'), ('UNSPECIFIED') ) ;
#81 = EDGE_CURVE ( 'NONE', #164, #164, #183, .T. ) ;
#82 = DIRECTION ( 'NONE',  ( -3.491481338843133355E-15, 1.224646799147353207E-16, -1.000000000000000000 ) ) ;
#83 = LOCAL_TIME ( 8, 3, 50.00000000000000000, #91 ) ;
#84 = FACE_OUTER_BOUND ( 'NONE', #103, .T. ) ;
#85 = DIRECTION ( 'NONE',  ( -3.491481338843133355E-15, 1.224646799147353207E-16, -1.000000000000000000 ) ) ;
#86 = CC_DESIGN_PERSON_AND_ORGANIZATION_ASSIGNMENT ( #15, #179, ( #173 ) ) ;
#87 = APPLICATION_PROTOCOL_DEFINITION ( 'international standard', 'config_control_design', 1994, #96 ) ;
#88 = AXIS2_PLACEMENT_3D ( 'NONE', #53, #58, #200 ) ;
#89 = CALENDAR_DATE ( 2021, 16, 12 ) ;
#90 = APPROVAL_ROLE ( '' ) ;
#91 = COORDINATED_UNIVERSAL_TIME_OFFSET ( 1, 0, .AHEAD. ) ;
#92 = CIRCLE ( 'NONE', #46, 4.000000000000000888 ) ;
#93 = CC_DESIGN_APPROVAL ( #67, ( #189 ) ) ;
#94 = DATE_TIME_ROLE ( 'classification_date' ) ;
#95 = CC_DESIGN_APPROVAL ( #124, ( #199 ) ) ;
#96 = APPLICATION_CONTEXT ( 'configuration controlled 3d designs of mechanical parts and assemblies' ) ;
#97 = CARTESIAN_POINT ( 'NONE',  ( 1.047444401652939691E-14, -5.204170427930429172E-16, 2.999999999999999112 ) ) ;
#98 = AXIS2_PLACEMENT_3D ( 'NONE', #97, #51, #113 ) ;
#99 =( LENGTH_UNIT ( ) NAMED_UNIT ( * ) SI_UNIT ( .MILLI., .METRE. ) );
#100 = DIRECTION ( 'NONE',  ( 4.275831445896958607E-31, 1.000000000000000000, 1.224646799147353207E-16 ) ) ;
#101 = APPLICATION_CONTEXT ( 'configuration controlled 3d designs of mechanical parts and assemblies' ) ;
#102 = MECHANICAL_CONTEXT ( 'NONE', #96, 'mechanical' ) ;
#103 = EDGE_LOOP ( 'NONE', ( #168 ) ) ;
#104 = VERTEX_POINT ( 'NONE', #133 ) ;
#105 = APPLICATION_PROTOCOL_DEFINITION ( 'international standard', 'config_control_design', 1994, #101 ) ;
#106 = PERSON_AND_ORGANIZATION_ROLE ( 'design_supplier' ) ;
#107 = EDGE_LOOP ( 'NONE', ( #182 ) ) ;
#108 = EDGE_CURVE ( 'NONE', #135, #135, #18, .T. ) ;
#109 = PERSON_AND_ORGANIZATION_ROLE ( 'creator' ) ;
#110 = APPROVAL_PERSON_ORGANIZATION ( #6, #124, #181 ) ;
#111 = DATE_AND_TIME ( #60, #132 ) ;
#112 = CC_DESIGN_DATE_AND_TIME_ASSIGNMENT ( #20, #62, ( #189 ) ) ;
#113 = DIRECTION ( 'NONE',  ( -4.275831445896958607E-31, -1.000000000000000000, -1.224646799147353207E-16 ) ) ;
#114 = AXIS2_PLACEMENT_3D ( 'NONE', #197, #82, #116 ) ;
#115 = LOCAL_TIME ( 8, 3, 50.00000000000000000, #29 ) ;
#116 = DIRECTION ( 'NONE',  ( 4.275831445896958607E-31, 1.000000000000000000, 1.224646799147353207E-16 ) ) ;
#117 = ORIENTED_EDGE ( 'NONE', *, *, #81, .T. ) ;
#118 = FACE_OUTER_BOUND ( 'NONE', #198, .T. ) ;
#119 = PERSON_AND_ORGANIZATION ( #80, #24 ) ;
#120 = CYLINDRICAL_SURFACE ( 'NONE', #148, 4.999999999999995559 ) ;
#121 = PERSON_AND_ORGANIZATION_ROLE ( 'creator' ) ;
#122 = APPROVAL_DATE_TIME ( #149, #171 ) ;
#123 = DATE_AND_TIME ( #45, #129 ) ;
#124 = APPROVAL ( #153, 'UNSPECIFIED' ) ;
#125 = CALENDAR_DATE ( 2021, 16, 12 ) ;
#126 = AXIS2_PLACEMENT_3D ( 'NONE', #54, #85, #17 ) ;
#127 = DIRECTION ( 'NONE',  ( -3.491481338843133355E-15, 1.224646799147353207E-16, -1.000000000000000000 ) ) ;
#128 = CARTESIAN_POINT ( 'NONE',  ( 0.0000000000000000000, 0.0000000000000000000, 0.0000000000000000000 ) ) ;
#129 = LOCAL_TIME ( 8, 3, 50.00000000000000000, #203 ) ;
#130 = MANIFOLD_SOLID_BREP ( 'Corps-Déplacer/Copier1[2]', #151 ) ;
#131 =( NAMED_UNIT ( * ) SI_UNIT ( $, .STERADIAN. ) SOLID_ANGLE_UNIT ( ) );
#132 = LOCAL_TIME ( 8, 3, 50.00000000000000000, #1 ) ;
#133 = CARTESIAN_POINT ( 'NONE',  ( 2.793185071074506684E-13, 3.999999999999991562, 80.00000000000000000 ) ) ;
#134 = PRODUCT_RELATED_PRODUCT_CATEGORY ( 'detail', '', ( #173 ) ) ;
#135 = VERTEX_POINT ( 'NONE', #143 ) ;
#136 = PERSON_AND_ORGANIZATION ( #80, #24 ) ;
#137 = COORDINATED_UNIVERSAL_TIME_OFFSET ( 1, 0, .AHEAD. ) ;
#138 = APPROVAL_DATE_TIME ( #123, #124 ) ;
#139 = ADVANCED_FACE ( 'NONE', ( #84, #72 ), #120, .T. ) ;
#140 = FACE_OUTER_BOUND ( 'NONE', #41, .T. ) ;
#141 = PRODUCT_DEFINITION_SHAPE ( 'NONE', 'NONE',  #189 ) ;
#142 = DIRECTION ( 'NONE',  ( -3.491481338843133355E-15, 1.224646799147353207E-16, -1.000000000000000000 ) ) ;
#143 = CARTESIAN_POINT ( 'NONE',  ( 1.047444401652940007E-14, 4.999999999999991118, 3.000000000000000000 ) ) ;
#144 = CARTESIAN_POINT ( 'NONE',  ( 1.047444401652940322E-14, 25.00000000000000000, 3.000000000000000888 ) ) ;
#145 = APPROVAL_STATUS ( 'not_yet_approved' ) ;
#146 = EDGE_LOOP ( 'NONE', ( #73 ) ) ;
#147 = ADVANCED_FACE ( 'NONE', ( #40, #201 ), #30, .T. ) ;
#148 = AXIS2_PLACEMENT_3D ( 'NONE', #163, #70, #56 ) ;
#149 = DATE_AND_TIME ( #89, #10 ) ;
#150 = CALENDAR_DATE ( 2021, 16, 12 ) ;
#151 = CLOSED_SHELL ( 'NONE', ( #43, #8, #49 ) ) ;
#152 = CC_DESIGN_APPROVAL ( #171, ( #47 ) ) ;
#153 = APPROVAL_STATUS ( 'not_yet_approved' ) ;
#154 = PERSON_AND_ORGANIZATION_ROLE ( 'classification_officer' ) ;
#155 = CIRCLE ( 'NONE', #3, 5.000000000000000000 ) ;
#156 = FACE_OUTER_BOUND ( 'NONE', #180, .T. ) ;
#157 = DIRECTION ( 'NONE',  ( 0.0000000000000000000, 1.000000000000000000, 0.0000000000000000000 ) ) ;
#158 = CARTESIAN_POINT ( 'NONE',  ( 2.793185071074506684E-13, -9.797174393178826052E-15, 80.00000000000000000 ) ) ;
#159 = DIRECTION ( 'NONE',  ( 4.314083075427408311E-31, 1.000000000000000000, 1.214306433183764966E-16 ) ) ;
#160 = VERTEX_POINT ( 'NONE', #144 ) ;
#161 = CC_DESIGN_PERSON_AND_ORGANIZATION_ASSIGNMENT ( #187, #106, ( #199 ) ) ;
#162 = PLANE ( 'NONE',  #114 ) ;
#163 = CARTESIAN_POINT ( 'NONE',  ( 0.0000000000000000000, 0.0000000000000000000, 0.0000000000000000000 ) ) ;
#164 = VERTEX_POINT ( 'NONE', #74 ) ;
#165 = FACE_OUTER_BOUND ( 'NONE', #146, .T. ) ;
#166 = ORIENTED_EDGE ( 'NONE', *, *, #25, .F. ) ;
#167 = PERSON_AND_ORGANIZATION ( #80, #24 ) ;
#168 = ORIENTED_EDGE ( 'NONE', *, *, #108, .F. ) ;
#169 = SECURITY_CLASSIFICATION_LEVEL ( 'unclassified' ) ;
#170 = ADVANCED_FACE ( 'NONE', ( #118 ), #162, .F. ) ;
#171 = APPROVAL ( #32, 'UNSPECIFIED' ) ;
#172 = CARTESIAN_POINT ( 'NONE',  ( -3.741347246639204194E-30, 1.312287961880846202E-31, -1.071564440289650980E-15 ) ) ;
#173 = PRODUCT ( '381179', '381179', '', ( #102 ) ) ;
#174 = AXIS2_PLACEMENT_3D ( 'NONE', #78, #142, #100 ) ;
#175 = DIRECTION ( 'NONE',  ( 0.0000000000000000000, 1.000000000000000000, 0.0000000000000000000 ) ) ;
#176 = DIRECTION ( 'NONE',  ( 0.0000000000000000000, 0.0000000000000000000, 1.000000000000000000 ) ) ;
#177 = AXIS2_PLACEMENT_3D ( 'NONE', #172, #23, #7 ) ;
#178 = DIRECTION ( 'NONE',  ( -3.491481338843133355E-15, 1.224646799147353207E-16, -1.000000000000000000 ) ) ;
#179 = PERSON_AND_ORGANIZATION_ROLE ( 'design_owner' ) ;
#180 = EDGE_LOOP ( 'NONE', ( #75 ) ) ;
#181 = APPROVAL_ROLE ( '' ) ;
#182 = ORIENTED_EDGE ( 'NONE', *, *, #186, .F. ) ;
#183 = CIRCLE ( 'NONE', #174, 25.00000000000000000 ) ;
#184 = APPROVAL_PERSON_ORGANIZATION ( #119, #67, #42 ) ;
#185 = PERSON_AND_ORGANIZATION ( #80, #24 ) ;
#186 = EDGE_CURVE ( 'NONE', #13, #13, #155, .T. ) ;
#187 = PERSON_AND_ORGANIZATION ( #80, #24 ) ;
#188 = CIRCLE ( 'NONE', #61, 25.00000000000000000 ) ;
#189 = PRODUCT_DEFINITION ( 'UNKNOWN', '', #199, #28 ) ;
#190 = PLANE ( 'NONE',  #98 ) ;
#191 = CC_DESIGN_PERSON_AND_ORGANIZATION_ASSIGNMENT ( #185, #121, ( #189 ) ) ;
#192 = DIRECTION ( 'NONE',  ( 4.275831445896958607E-31, 1.000000000000000000, 1.224646799147353207E-16 ) ) ;
#193 = CC_DESIGN_DATE_AND_TIME_ASSIGNMENT ( #111, #94, ( #47 ) ) ;
#194 = CARTESIAN_POINT ( 'NONE',  ( 0.0000000000000000000, 0.0000000000000000000, 0.0000000000000000000 ) ) ;
#195 = DIRECTION ( 'NONE',  ( 1.000000000000000000, 0.0000000000000000000, 0.0000000000000000000 ) ) ;
#196 = EDGE_LOOP ( 'NONE', ( #16 ) ) ;
#197 = CARTESIAN_POINT ( 'NONE',  ( 2.793185071074506684E-13, 2.999519565323701531E-32, 80.00000000000000000 ) ) ;
#198 = EDGE_LOOP ( 'NONE', ( #44 ) ) ;
#199 = PRODUCT_DEFINITION_FORMATION_WITH_SPECIFIED_SOURCE ( 'ANY', '', #173, .NOT_KNOWN. ) ;
#200 = DIRECTION ( 'NONE',  ( 0.0000000000000000000, 1.000000000000000000, 0.0000000000000000000 ) ) ;
#201 = FACE_BOUND ( 'NONE', #55, .T. ) ;
#202 = MANIFOLD_SOLID_BREP ( 'Corps-Déplacer/Copier1[1]', #71 ) ;
#203 = COORDINATED_UNIVERSAL_TIME_OFFSET ( 1, 0, .AHEAD. ) ;
ENDSEC;
END-ISO-10303-21;
