ISO-10303-21;
HEADER;
FILE_DESCRIPTION (( 'STEP AP203' ),
    '1' );
FILE_NAME ('381178.step',
    '2021-12-16T07:03:50',
    ( '' ),
    ( '' ),
    'SwSTEP 2.0',
    'SolidWorks 2019',
    '' );
FILE_SCHEMA (( 'CONFIG_CONTROL_DESIGN' ));
ENDSEC;

DATA;
#1 = ORIENTED_EDGE ( 'NONE', *, *, #72, .F. ) ;
#2 = EDGE_CURVE ( 'NONE', #4, #4, #16, .T. ) ;
#3 = AXIS2_PLACEMENT_3D ( 'NONE', #153, #63, #168 ) ;
#4 = VERTEX_POINT ( 'NONE', #104 ) ;
#5 = CARTESIAN_POINT ( 'NONE',  ( 6.982962677686266711E-15, 3.999999999999990674, 2.000000000000000000 ) ) ;
#6 = DATE_TIME_ROLE ( 'classification_date' ) ;
#7 = UNCERTAINTY_MEASURE_WITH_UNIT (LENGTH_MEASURE( 1.000000000000000082E-05 ), #129, 'distance_accuracy_value', 'NONE');
#8 = VERTEX_POINT ( 'NONE', #93 ) ;
#9 = CIRCLE ( 'NONE', #97, 3.999999999999990674 ) ;
#10 = CARTESIAN_POINT ( 'NONE',  ( 0.0000000000000000000, 0.0000000000000000000, 0.0000000000000000000 ) ) ;
#11 = ADVANCED_FACE ( 'NONE', ( #85 ), #101, .F. ) ;
#12 = PERSON ( 'UNSPECIFIED', 'UNSPECIFIED', 'UNSPECIFIED', ('UNSPECIFIED'), ('UNSPECIFIED'), ('UNSPECIFIED') ) ;
#13 = CALENDAR_DATE ( 2021, 16, 12 ) ;
#14 = CARTESIAN_POINT ( 'NONE',  ( 2.765253220363761617E-13, -9.699202649247037618E-15, 79.20000000000000284 ) ) ;
#15 = SECURITY_CLASSIFICATION ( '', '', #127 ) ;
#16 = CIRCLE ( 'NONE', #103, 3.200000000000000622 ) ;
#17 = DIRECTION ( 'NONE',  ( 0.0000000000000000000, 1.000000000000000000, 0.0000000000000000000 ) ) ;
#18 = ADVANCED_FACE ( 'NONE', ( #184 ), #133, .F. ) ;
#19 = ORIENTED_EDGE ( 'NONE', *, *, #40, .F. ) ;
#20 = CC_DESIGN_DATE_AND_TIME_ASSIGNMENT ( #28, #6, ( #15 ) ) ;
#21 =( GEOMETRIC_REPRESENTATION_CONTEXT ( 3 ) GLOBAL_UNCERTAINTY_ASSIGNED_CONTEXT ( ( #7 ) ) GLOBAL_UNIT_ASSIGNED_CONTEXT ( ( #129, #82, #195 ) ) REPRESENTATION_CONTEXT ( 'NONE', 'WORKASPACE' ) );
#22 = APPROVAL_DATE_TIME ( #26, #48 ) ;
#23 = DIRECTION ( 'NONE',  ( -3.491481338843133355E-15, 1.224646799147353207E-16, -1.000000000000000000 ) ) ;
#24 = CC_DESIGN_PERSON_AND_ORGANIZATION_ASSIGNMENT ( #189, #80, ( #90 ) ) ;
#25 = PERSON_AND_ORGANIZATION ( #12, #136 ) ;
#26 = DATE_AND_TIME ( #158, #144 ) ;
#27 = AXIS2_PLACEMENT_3D ( 'NONE', #10, #192, #29 ) ;
#28 = DATE_AND_TIME ( #174, #202 ) ;
#29 = DIRECTION ( 'NONE',  ( 1.000000000000000000, 0.0000000000000000000, 0.0000000000000000000 ) ) ;
#30 = APPLICATION_PROTOCOL_DEFINITION ( 'international standard', 'config_control_design', 1994, #156 ) ;
#31 = CLOSED_SHELL ( 'NONE', ( #18, #194, #53 ) ) ;
#32 = EDGE_LOOP ( 'NONE', ( #138 ) ) ;
#33 = EDGE_LOOP ( 'NONE', ( #198 ) ) ;
#34 = ORIENTED_EDGE ( 'NONE', *, *, #2, .F. ) ;
#35 = FACE_BOUND ( 'NONE', #32, .T. ) ;
#36 = CARTESIAN_POINT ( 'NONE',  ( -5.344782282677019130E-30, 1.874697264396283399E-31, -1.530806486981814391E-15 ) ) ;
#37 = EDGE_CURVE ( 'NONE', #140, #140, #9, .T. ) ;
#38 = APPROVAL_PERSON_ORGANIZATION ( #176, #48, #42 ) ;
#39 = CYLINDRICAL_SURFACE ( 'NONE', #151, 3.999999999999994671 ) ;
#40 = EDGE_CURVE ( 'NONE', #125, #125, #190, .T. ) ;
#41 = FACE_OUTER_BOUND ( 'NONE', #201, .T. ) ;
#42 = APPROVAL_ROLE ( '' ) ;
#43 = VERTEX_POINT ( 'NONE', #60 ) ;
#44 = CIRCLE ( 'NONE', #139, 4.000000000000000000 ) ;
#45 = DIRECTION ( 'NONE',  ( -3.491481338843133355E-15, 1.224646799147353207E-16, -1.000000000000000000 ) ) ;
#46 = AXIS2_PLACEMENT_3D ( 'NONE', #120, #118, #167 ) ;
#47 = DIRECTION ( 'NONE',  ( -3.491481338843133355E-15, 1.224646799147353207E-16, -1.000000000000000000 ) ) ;
#48 = APPROVAL ( #163, 'UNSPECIFIED' ) ;
#49 = DIRECTION ( 'NONE',  ( 4.275831445896958607E-31, 1.000000000000000000, 1.224646799147353207E-16 ) ) ;
#50 = ADVANCED_FACE ( 'NONE', ( #51, #35 ), #81, .T. ) ;
#51 = FACE_OUTER_BOUND ( 'NONE', #196, .T. ) ;
#52 = LOCAL_TIME ( 8, 3, 50.00000000000000000, #147 ) ;
#53 = ADVANCED_FACE ( 'NONE', ( #164 ), #152, .F. ) ;
#54 = CC_DESIGN_DATE_AND_TIME_ASSIGNMENT ( #95, #71, ( #124 ) ) ;
#55 = APPROVAL_ROLE ( '' ) ;
#56 = COORDINATED_UNIVERSAL_TIME_OFFSET ( 1, 0, .AHEAD. ) ;
#57 = APPROVAL ( #94, 'UNSPECIFIED' ) ;
#58 = APPROVAL_STATUS ( 'not_yet_approved' ) ;
#59 = APPROVAL_ROLE ( '' ) ;
#60 = CARTESIAN_POINT ( 'NONE',  ( 2.765253220363761617E-13, 3.999999999999990674, 79.20000000000000284 ) ) ;
#61 = DIRECTION ( 'NONE',  ( 0.0000000000000000000, 1.000000000000000000, 0.0000000000000000000 ) ) ;
#62 = CC_DESIGN_SECURITY_CLASSIFICATION ( #15, ( #90 ) ) ;
#63 = DIRECTION ( 'NONE',  ( 3.491481338843133355E-15, -1.224646799147353207E-16, 1.000000000000000000 ) ) ;
#64 = CC_DESIGN_PERSON_AND_ORGANIZATION_ASSIGNMENT ( #111, #191, ( #90 ) ) ;
#65 = CC_DESIGN_APPROVAL ( #48, ( #90 ) ) ;
#66 = CARTESIAN_POINT ( 'NONE',  ( 2.793185071074506684E-13, -9.797174393178826052E-15, 80.00000000000000000 ) ) ;
#67 = APPLICATION_CONTEXT ( 'configuration controlled 3d designs of mechanical parts and assemblies' ) ;
#68 = DIRECTION ( 'NONE',  ( 3.491481338843133355E-15, -1.224646799147353207E-16, 1.000000000000000000 ) ) ;
#69 = ORIENTED_EDGE ( 'NONE', *, *, #40, .T. ) ;
#70 = AXIS2_PLACEMENT_3D ( 'NONE', #116, #68, #87 ) ;
#71 = DATE_TIME_ROLE ( 'creation_date' ) ;
#72 = EDGE_CURVE ( 'NONE', #8, #8, #107, .T. ) ;
#73 = EDGE_LOOP ( 'NONE', ( #34 ) ) ;
#74 = AXIS2_PLACEMENT_3D ( 'NONE', #203, #98, #165 ) ;
#75 = PLANE ( 'NONE',  #74 ) ;
#76 = APPROVAL_PERSON_ORGANIZATION ( #25, #186, #55 ) ;
#77 = DIRECTION ( 'NONE',  ( -3.491481338843133355E-15, 1.224646799147353207E-16, -1.000000000000000000 ) ) ;
#78 = ADVANCED_BREP_SHAPE_REPRESENTATION ( '381178', ( #197, #199, #27 ), #21 ) ;
#79 = DIRECTION ( 'NONE',  ( 4.275831445896959482E-31, 1.000000000000000000, 1.224646799147353207E-16 ) ) ;
#80 = PERSON_AND_ORGANIZATION_ROLE ( 'creator' ) ;
#81 = CONICAL_SURFACE ( 'NONE', #159, 3.200000000000000622, 0.7853981633974510546 ) ;
#82 =( NAMED_UNIT ( * ) PLANE_ANGLE_UNIT ( ) SI_UNIT ( $, .RADIAN. ) );
#83 = PERSON_AND_ORGANIZATION ( #12, #136 ) ;
#84 = AXIS2_PLACEMENT_3D ( 'NONE', #36, #47, #178 ) ;
#85 = FACE_OUTER_BOUND ( 'NONE', #122, .T. ) ;
#86 = EDGE_LOOP ( 'NONE', ( #69 ) ) ;
#87 = DIRECTION ( 'NONE',  ( -4.275831445896958607E-31, -1.000000000000000000, -1.224646799147353207E-16 ) ) ;
#88 = CARTESIAN_POINT ( 'NONE',  ( 2.793185071074506684E-13, -9.797174393178826052E-15, 80.00000000000000000 ) ) ;
#89 = ORIENTED_EDGE ( 'NONE', *, *, #72, .T. ) ;
#90 = PRODUCT_DEFINITION_FORMATION_WITH_SPECIFIED_SOURCE ( 'ANY', '', #128, .NOT_KNOWN. ) ;
#91 = PERSON_AND_ORGANIZATION ( #12, #136 ) ;
#92 = AXIS2_PLACEMENT_3D ( 'NONE', #155, #77, #79 ) ;
#93 = CARTESIAN_POINT ( 'NONE',  ( 6.982962677686268288E-15, 17.50000000000000000, 2.000000000000000444 ) ) ;
#94 = APPROVAL_STATUS ( 'not_yet_approved' ) ;
#95 = DATE_AND_TIME ( #13, #52 ) ;
#96 = DIRECTION ( 'NONE',  ( 0.0000000000000000000, 1.000000000000000000, 0.0000000000000000000 ) ) ;
#97 = AXIS2_PLACEMENT_3D ( 'NONE', #200, #150, #148 ) ;
#98 = DIRECTION ( 'NONE',  ( -3.491481338843133355E-15, 1.224646799147353207E-16, -1.000000000000000000 ) ) ;
#99 = EDGE_LOOP ( 'NONE', ( #19 ) ) ;
#100 = DIRECTION ( 'NONE',  ( -3.491481338843133355E-15, 1.224646799147353207E-16, -1.000000000000000000 ) ) ;
#101 = PLANE ( 'NONE',  #3 ) ;
#102 = PRODUCT_DEFINITION_SHAPE ( 'NONE', 'NONE',  #124 ) ;
#103 = AXIS2_PLACEMENT_3D ( 'NONE', #88, #135, #61 ) ;
#104 = CARTESIAN_POINT ( 'NONE',  ( 2.793185071074506684E-13, 3.199999999999990408, 80.00000000000000000 ) ) ;
#105 = LOCAL_TIME ( 8, 3, 50.00000000000000000, #56 ) ;
#106 = FACE_OUTER_BOUND ( 'NONE', #137, .T. ) ;
#107 = CIRCLE ( 'NONE', #46, 17.50000000000000000 ) ;
#108 = DATE_AND_TIME ( #160, #105 ) ;
#109 = PERSON_AND_ORGANIZATION ( #12, #136 ) ;
#110 = DATE_AND_TIME ( #114, #187 ) ;
#111 = PERSON_AND_ORGANIZATION ( #12, #136 ) ;
#112 = APPLICATION_PROTOCOL_DEFINITION ( 'international standard', 'config_control_design', 1994, #67 ) ;
#113 = EDGE_CURVE ( 'NONE', #43, #43, #44, .T. ) ;
#114 = CALENDAR_DATE ( 2021, 16, 12 ) ;
#115 = PERSON_AND_ORGANIZATION_ROLE ( 'creator' ) ;
#116 = CARTESIAN_POINT ( 'NONE',  ( -2.672391141338509565E-30, 9.373486321981416995E-32, -7.654032434909071954E-16 ) ) ;
#117 = CC_DESIGN_PERSON_AND_ORGANIZATION_ASSIGNMENT ( #145, #193, ( #128 ) ) ;
#118 = DIRECTION ( 'NONE',  ( -3.491481338843133355E-15, 1.224646799147353207E-16, -1.000000000000000000 ) ) ;
#119 = AXIS2_PLACEMENT_3D ( 'NONE', #181, #183, #49 ) ;
#120 = CARTESIAN_POINT ( 'NONE',  ( 6.982962677686260400E-15, -2.449293598294704442E-16, 1.999999999999998224 ) ) ;
#121 = ORIENTED_EDGE ( 'NONE', *, *, #37, .F. ) ;
#122 = EDGE_LOOP ( 'NONE', ( #179 ) ) ;
#123 = CC_DESIGN_PERSON_AND_ORGANIZATION_ASSIGNMENT ( #109, #141, ( #15 ) ) ;
#124 = PRODUCT_DEFINITION ( 'UNKNOWN', '', #90, #131 ) ;
#125 = VERTEX_POINT ( 'NONE', #142 ) ;
#126 = FACE_OUTER_BOUND ( 'NONE', #33, .T. ) ;
#127 = SECURITY_CLASSIFICATION_LEVEL ( 'unclassified' ) ;
#128 = PRODUCT ( '381178', '381178', '', ( #161 ) ) ;
#129 =( LENGTH_UNIT ( ) NAMED_UNIT ( * ) SI_UNIT ( .MILLI., .METRE. ) );
#130 = COORDINATED_UNIVERSAL_TIME_OFFSET ( 1, 0, .AHEAD. ) ;
#131 = DESIGN_CONTEXT ( 'detailed design', #67, 'design' ) ;
#132 = COORDINATED_UNIVERSAL_TIME_OFFSET ( 1, 0, .AHEAD. ) ;
#133 = PLANE ( 'NONE',  #70 ) ;
#134 = FACE_OUTER_BOUND ( 'NONE', #73, .T. ) ;
#135 = DIRECTION ( 'NONE',  ( -3.491481338843133355E-15, 1.224646799147353207E-16, -1.000000000000000000 ) ) ;
#136 = ORGANIZATION ( 'UNSPECIFIED', 'UNSPECIFIED', '' ) ;
#137 = EDGE_LOOP ( 'NONE', ( #89 ) ) ;
#138 = ORIENTED_EDGE ( 'NONE', *, *, #2, .T. ) ;
#139 = AXIS2_PLACEMENT_3D ( 'NONE', #14, #100, #17 ) ;
#140 = VERTEX_POINT ( 'NONE', #5 ) ;
#141 = PERSON_AND_ORGANIZATION_ROLE ( 'classification_officer' ) ;
#142 = CARTESIAN_POINT ( 'NONE',  ( 2.137922747642659920E-30, 17.50000000000000000, 6.123254115260540545E-16 ) ) ;
#143 = APPROVAL_DATE_TIME ( #108, #186 ) ;
#144 = LOCAL_TIME ( 8, 3, 50.00000000000000000, #130 ) ;
#145 = PERSON_AND_ORGANIZATION ( #12, #136 ) ;
#146 = COORDINATED_UNIVERSAL_TIME_OFFSET ( 1, 0, .AHEAD. ) ;
#147 = COORDINATED_UNIVERSAL_TIME_OFFSET ( 1, 0, .AHEAD. ) ;
#148 = DIRECTION ( 'NONE',  ( 3.851859888774480902E-31, 1.000000000000000000, 1.084202172485507022E-16 ) ) ;
#149 = EDGE_LOOP ( 'NONE', ( #1 ) ) ;
#150 = DIRECTION ( 'NONE',  ( -3.491481338843133355E-15, 1.224646799147353207E-16, -1.000000000000000000 ) ) ;
#151 = AXIS2_PLACEMENT_3D ( 'NONE', #185, #23, #170 ) ;
#152 = PLANE ( 'NONE',  #119 ) ;
#153 = CARTESIAN_POINT ( 'NONE',  ( 6.982962677686265133E-15, -2.168404344971013305E-16, 1.999999999999999556 ) ) ;
#154 = APPROVAL_PERSON_ORGANIZATION ( #91, #57, #59 ) ;
#155 = CARTESIAN_POINT ( 'NONE',  ( 0.0000000000000000000, 0.0000000000000000000, 0.0000000000000000000 ) ) ;
#156 = APPLICATION_CONTEXT ( 'configuration controlled 3d designs of mechanical parts and assemblies' ) ;
#157 = ADVANCED_FACE ( 'NONE', ( #134 ), #75, .F. ) ;
#158 = CALENDAR_DATE ( 2021, 16, 12 ) ;
#159 = AXIS2_PLACEMENT_3D ( 'NONE', #66, #45, #96 ) ;
#160 = CALENDAR_DATE ( 2021, 16, 12 ) ;
#161 = MECHANICAL_CONTEXT ( 'NONE', #156, 'mechanical' ) ;
#162 = APPROVAL_DATE_TIME ( #110, #57 ) ;
#163 = APPROVAL_STATUS ( 'not_yet_approved' ) ;
#164 = FACE_OUTER_BOUND ( 'NONE', #149, .T. ) ;
#165 = DIRECTION ( 'NONE',  ( 4.275831445896958607E-31, 1.000000000000000000, 1.224646799147353207E-16 ) ) ;
#166 = ORIENTED_EDGE ( 'NONE', *, *, #113, .F. ) ;
#167 = DIRECTION ( 'NONE',  ( 4.402125587170824932E-31, 1.000000000000000000, 1.239088197126290817E-16 ) ) ;
#168 = DIRECTION ( 'NONE',  ( -4.275831445896958607E-31, -1.000000000000000000, -1.224646799147353207E-16 ) ) ;
#169 = CLOSED_SHELL ( 'NONE', ( #11, #171, #50, #157 ) ) ;
#170 = DIRECTION ( 'NONE',  ( 4.275831445896959482E-31, 1.000000000000000000, 1.224646799147353454E-16 ) ) ;
#171 = ADVANCED_FACE ( 'NONE', ( #41, #126 ), #39, .T. ) ;
#172 = CYLINDRICAL_SURFACE ( 'NONE', #92, 17.50000000000000000 ) ;
#173 = SHAPE_DEFINITION_REPRESENTATION ( #102, #78 ) ;
#174 = CALENDAR_DATE ( 2021, 16, 12 ) ;
#175 = PRODUCT_RELATED_PRODUCT_CATEGORY ( 'detail', '', ( #128 ) ) ;
#176 = PERSON_AND_ORGANIZATION ( #12, #136 ) ;
#177 = CC_DESIGN_APPROVAL ( #186, ( #15 ) ) ;
#178 = DIRECTION ( 'NONE',  ( 4.275831445896959482E-31, 1.000000000000000000, 1.224646799147353207E-16 ) ) ;
#179 = ORIENTED_EDGE ( 'NONE', *, *, #37, .T. ) ;
#180 = CC_DESIGN_APPROVAL ( #57, ( #124 ) ) ;
#181 = CARTESIAN_POINT ( 'NONE',  ( 6.982962677686263555E-15, -6.424901762877043774E-17, 1.999999999999999112 ) ) ;
#182 = CC_DESIGN_PERSON_AND_ORGANIZATION_ASSIGNMENT ( #83, #115, ( #124 ) ) ;
#183 = DIRECTION ( 'NONE',  ( -3.491481338843133355E-15, 1.224646799147353207E-16, -1.000000000000000000 ) ) ;
#184 = FACE_OUTER_BOUND ( 'NONE', #86, .T. ) ;
#185 = CARTESIAN_POINT ( 'NONE',  ( 0.0000000000000000000, 0.0000000000000000000, 0.0000000000000000000 ) ) ;
#186 = APPROVAL ( #58, 'UNSPECIFIED' ) ;
#187 = LOCAL_TIME ( 8, 3, 50.00000000000000000, #132 ) ;
#188 = FACE_OUTER_BOUND ( 'NONE', #99, .T. ) ;
#189 = PERSON_AND_ORGANIZATION ( #12, #136 ) ;
#190 = CIRCLE ( 'NONE', #84, 17.50000000000000000 ) ;
#191 = PERSON_AND_ORGANIZATION_ROLE ( 'design_supplier' ) ;
#192 = DIRECTION ( 'NONE',  ( 0.0000000000000000000, 0.0000000000000000000, 1.000000000000000000 ) ) ;
#193 = PERSON_AND_ORGANIZATION_ROLE ( 'design_owner' ) ;
#194 = ADVANCED_FACE ( 'NONE', ( #188, #106 ), #172, .T. ) ;
#195 =( NAMED_UNIT ( * ) SI_UNIT ( $, .STERADIAN. ) SOLID_ANGLE_UNIT ( ) );
#196 = EDGE_LOOP ( 'NONE', ( #166 ) ) ;
#197 = MANIFOLD_SOLID_BREP ( 'Corps-Déplacer/Copier1[1]', #169 ) ;
#198 = ORIENTED_EDGE ( 'NONE', *, *, #113, .T. ) ;
#199 = MANIFOLD_SOLID_BREP ( 'Corps-Déplacer/Copier1[2]', #31 ) ;
#200 = CARTESIAN_POINT ( 'NONE',  ( 6.982962677686265133E-15, -2.449293598294705921E-16, 1.999999999999999556 ) ) ;
#201 = EDGE_LOOP ( 'NONE', ( #121 ) ) ;
#202 = LOCAL_TIME ( 8, 3, 50.00000000000000000, #146 ) ;
#203 = CARTESIAN_POINT ( 'NONE',  ( 2.793185071074506684E-13, 2.399615652258957667E-32, 80.00000000000000000 ) ) ;
ENDSEC;
END-ISO-10303-21;
