ISO-10303-21;
HEADER;
FILE_DESCRIPTION (( 'STEP AP203' ),
    '1' );
FILE_NAME ('381177.step',
    '2021-12-16T07:03:49',
    ( '' ),
    ( '' ),
    'SwSTEP 2.0',
    'SolidWorks 2019',
    '' );
FILE_SCHEMA (( 'CONFIG_CONTROL_DESIGN' ));
ENDSEC;

DATA;
#1 = EDGE_LOOP ( 'NONE', ( #198 ) ) ;
#2 = CC_DESIGN_PERSON_AND_ORGANIZATION_ASSIGNMENT ( #185, #47, ( #55 ) ) ;
#3 = CIRCLE ( 'NONE', #178, 12.50000000000000000 ) ;
#4 = LOCAL_TIME ( 8, 3, 49.00000000000000000, #67 ) ;
#5 =( LENGTH_UNIT ( ) NAMED_UNIT ( * ) SI_UNIT ( .MILLI., .METRE. ) );
#6 = FACE_BOUND ( 'NONE', #78, .T. ) ;
#7 = ORIENTED_EDGE ( 'NONE', *, *, #188, .F. ) ;
#8 = CARTESIAN_POINT ( 'NONE',  ( 0.0000000000000000000, 0.0000000000000000000, 0.0000000000000000000 ) ) ;
#9 = AXIS2_PLACEMENT_3D ( 'NONE', #62, #157, #172 ) ;
#10 = CC_DESIGN_PERSON_AND_ORGANIZATION_ASSIGNMENT ( #53, #158, ( #144 ) ) ;
#11 = FACE_OUTER_BOUND ( 'NONE', #132, .T. ) ;
#12 = ADVANCED_FACE ( 'NONE', ( #155, #196 ), #153, .T. ) ;
#13 = EDGE_LOOP ( 'NONE', ( #176 ) ) ;
#14 = APPROVAL ( #139, 'UNSPECIFIED' ) ;
#15 = APPROVAL_STATUS ( 'not_yet_approved' ) ;
#16 = PERSON_AND_ORGANIZATION ( #177, #147 ) ;
#17 = LOCAL_TIME ( 8, 3, 49.00000000000000000, #112 ) ;
#18 = DESIGN_CONTEXT ( 'detailed design', #20, 'design' ) ;
#19 = ADVANCED_FACE ( 'NONE', ( #197 ), #195, .F. ) ;
#20 = APPLICATION_CONTEXT ( 'configuration controlled 3d designs of mechanical parts and assemblies' ) ;
#21 = EDGE_CURVE ( 'NONE', #61, #61, #32, .T. ) ;
#22 = ORIENTED_EDGE ( 'NONE', *, *, #21, .F. ) ;
#23 = APPROVAL_PERSON_ORGANIZATION ( #56, #133, #98 ) ;
#24 = DIRECTION ( 'NONE',  ( 4.275831445896958607E-31, 1.000000000000000000, 1.224646799147353207E-16 ) ) ;
#25 = DIRECTION ( 'NONE',  ( -3.491481338843133355E-15, 1.224646799147353207E-16, -1.000000000000000000 ) ) ;
#26 =( NAMED_UNIT ( * ) SI_UNIT ( $, .STERADIAN. ) SOLID_ANGLE_UNIT ( ) );
#27 = DIRECTION ( 'NONE',  ( 3.491481338843133355E-15, -1.224646799147353207E-16, 1.000000000000000000 ) ) ;
#28 = VERTEX_POINT ( 'NONE', #149 ) ;
#29 = CYLINDRICAL_SURFACE ( 'NONE', #97, 12.50000000000000000 ) ;
#30 = CARTESIAN_POINT ( 'NONE',  ( 0.0000000000000000000, 0.0000000000000000000, 0.0000000000000000000 ) ) ;
#31 = DIRECTION ( 'NONE',  ( 4.275831445896959482E-31, 1.000000000000000000, 1.224646799147353454E-16 ) ) ;
#32 = CIRCLE ( 'NONE', #9, 4.000000000000000000 ) ;
#33 = ORIENTED_EDGE ( 'NONE', *, *, #117, .F. ) ;
#34 = DATE_AND_TIME ( #128, #57 ) ;
#35 =( GEOMETRIC_REPRESENTATION_CONTEXT ( 3 ) GLOBAL_UNCERTAINTY_ASSIGNED_CONTEXT ( ( #99 ) ) GLOBAL_UNIT_ASSIGNED_CONTEXT ( ( #5, #122, #26 ) ) REPRESENTATION_CONTEXT ( 'NONE', 'WORKASPACE' ) );
#36 = CALENDAR_DATE ( 2021, 16, 12 ) ;
#37 = DATE_AND_TIME ( #36, #4 ) ;
#38 = CC_DESIGN_APPROVAL ( #133, ( #144 ) ) ;
#39 = APPLICATION_CONTEXT ( 'configuration controlled 3d designs of mechanical parts and assemblies' ) ;
#40 = CARTESIAN_POINT ( 'NONE',  ( 2.765253220363761617E-13, 3.999999999999990674, 79.20000000000000284 ) ) ;
#41 = PRODUCT_DEFINITION_SHAPE ( 'NONE', 'NONE',  #127 ) ;
#42 = DIRECTION ( 'NONE',  ( -3.491481338843133355E-15, 1.224646799147353207E-16, -1.000000000000000000 ) ) ;
#43 = CONICAL_SURFACE ( 'NONE', #100, 3.200000000000000622, 0.7853981633974510546 ) ;
#44 = ADVANCED_FACE ( 'NONE', ( #168, #183 ), #29, .T. ) ;
#45 = VERTEX_POINT ( 'NONE', #88 ) ;
#46 = CARTESIAN_POINT ( 'NONE',  ( 0.0000000000000000000, 0.0000000000000000000, 0.0000000000000000000 ) ) ;
#47 = PERSON_AND_ORGANIZATION_ROLE ( 'design_owner' ) ;
#48 = CARTESIAN_POINT ( 'NONE',  ( 6.982962677686263555E-15, 9.373498641636610596E-32, 1.999999999999999112 ) ) ;
#49 = DATE_AND_TIME ( #171, #119 ) ;
#50 = DIRECTION ( 'NONE',  ( -4.275831445896958607E-31, -1.000000000000000000, -1.224646799147353207E-16 ) ) ;
#51 = LOCAL_TIME ( 8, 3, 49.00000000000000000, #96 ) ;
#52 = PERSON_AND_ORGANIZATION ( #177, #147 ) ;
#53 = PERSON_AND_ORGANIZATION ( #177, #147 ) ;
#54 = AXIS2_PLACEMENT_3D ( 'NONE', #124, #27, #140 ) ;
#55 = PRODUCT ( '381177', '381177', '', ( #165 ) ) ;
#56 = PERSON_AND_ORGANIZATION ( #177, #147 ) ;
#57 = LOCAL_TIME ( 8, 3, 49.00000000000000000, #116 ) ;
#58 = DIRECTION ( 'NONE',  ( 0.0000000000000000000, 1.000000000000000000, 0.0000000000000000000 ) ) ;
#59 = APPROVAL ( #15, 'UNSPECIFIED' ) ;
#60 = APPROVAL_PERSON_ORGANIZATION ( #73, #14, #77 ) ;
#61 = VERTEX_POINT ( 'NONE', #40 ) ;
#62 = CARTESIAN_POINT ( 'NONE',  ( 2.765253220363761617E-13, -9.699202649247037618E-15, 79.20000000000000284 ) ) ;
#63 = CARTESIAN_POINT ( 'NONE',  ( -3.206866559728538601E-30, 1.124817373065354157E-31, -9.184830874081374668E-16 ) ) ;
#64 = APPLICATION_PROTOCOL_DEFINITION ( 'international standard', 'config_control_design', 1994, #39 ) ;
#65 = CARTESIAN_POINT ( 'NONE',  ( 6.982962677686265133E-15, -2.449293598294705921E-16, 1.999999999999999556 ) ) ;
#66 = DATE_AND_TIME ( #203, #51 ) ;
#67 = COORDINATED_UNIVERSAL_TIME_OFFSET ( 1, 0, .AHEAD. ) ;
#68 = AXIS2_PLACEMENT_3D ( 'NONE', #8, #104, #31 ) ;
#69 = ORIENTED_EDGE ( 'NONE', *, *, #110, .T. ) ;
#70 = EDGE_CURVE ( 'NONE', #194, #194, #3, .T. ) ;
#71 = CC_DESIGN_SECURITY_CLASSIFICATION ( #191, ( #144 ) ) ;
#72 = CARTESIAN_POINT ( 'NONE',  ( 2.793185071074506684E-13, -9.797174393178826052E-15, 80.00000000000000000 ) ) ;
#73 = PERSON_AND_ORGANIZATION ( #177, #147 ) ;
#74 = MANIFOLD_SOLID_BREP ( 'Corps-Déplacer/Copier1[2]', #121 ) ;
#75 = AXIS2_PLACEMENT_3D ( 'NONE', #30, #192, #92 ) ;
#76 = DIRECTION ( 'NONE',  ( 4.275831445896958607E-31, 1.000000000000000000, 1.224646799147353207E-16 ) ) ;
#77 = APPROVAL_ROLE ( '' ) ;
#78 = EDGE_LOOP ( 'NONE', ( #69 ) ) ;
#79 = APPROVAL_PERSON_ORGANIZATION ( #52, #59, #111 ) ;
#80 = ADVANCED_FACE ( 'NONE', ( #109 ), #150, .F. ) ;
#81 = PRODUCT_RELATED_PRODUCT_CATEGORY ( 'detail', '', ( #55 ) ) ;
#82 = CALENDAR_DATE ( 2021, 16, 12 ) ;
#83 = AXIS2_PLACEMENT_3D ( 'NONE', #103, #86, #135 ) ;
#84 = AXIS2_PLACEMENT_3D ( 'NONE', #48, #181, #138 ) ;
#85 = ADVANCED_FACE ( 'NONE', ( #11, #6 ), #43, .T. ) ;
#86 = DIRECTION ( 'NONE',  ( -3.491481338843133355E-15, 1.224646799147353207E-16, -1.000000000000000000 ) ) ;
#87 = DIRECTION ( 'NONE',  ( -3.491481338843133355E-15, 1.224646799147353207E-16, -1.000000000000000000 ) ) ;
#88 = CARTESIAN_POINT ( 'NONE',  ( 2.793185071074506684E-13, 3.199999999999990408, 80.00000000000000000 ) ) ;
#89 = DIRECTION ( 'NONE',  ( 0.0000000000000000000, 1.000000000000000000, 0.0000000000000000000 ) ) ;
#90 = VERTEX_POINT ( 'NONE', #108 ) ;
#91 = ORIENTED_EDGE ( 'NONE', *, *, #70, .T. ) ;
#92 = DIRECTION ( 'NONE',  ( 1.000000000000000000, 0.0000000000000000000, 0.0000000000000000000 ) ) ;
#93 = CARTESIAN_POINT ( 'NONE',  ( -1.603433279864269301E-30, 5.624086865326770786E-32, -4.592415437040687334E-16 ) ) ;
#94 = APPROVAL_DATE_TIME ( #143, #59 ) ;
#95 = CC_DESIGN_PERSON_AND_ORGANIZATION_ASSIGNMENT ( #113, #187, ( #191 ) ) ;
#96 = COORDINATED_UNIVERSAL_TIME_OFFSET ( 1, 0, .AHEAD. ) ;
#97 = AXIS2_PLACEMENT_3D ( 'NONE', #46, #87, #76 ) ;
#98 = APPROVAL_ROLE ( '' ) ;
#99 = UNCERTAINTY_MEASURE_WITH_UNIT (LENGTH_MEASURE( 1.000000000000000082E-05 ), #5, 'distance_accuracy_value', 'NONE');
#100 = AXIS2_PLACEMENT_3D ( 'NONE', #72, #184, #58 ) ;
#101 = ORIENTED_EDGE ( 'NONE', *, *, #188, .T. ) ;
#102 = ADVANCED_FACE ( 'NONE', ( #137 ), #123, .F. ) ;
#103 = CARTESIAN_POINT ( 'NONE',  ( 6.982962677686260400E-15, -2.449293598294704442E-16, 1.999999999999998224 ) ) ;
#104 = DIRECTION ( 'NONE',  ( -3.491481338843133355E-15, 1.224646799147353207E-16, -1.000000000000000000 ) ) ;
#105 = DIRECTION ( 'NONE',  ( 3.491481338843133355E-15, -1.224646799147353207E-16, 1.000000000000000000 ) ) ;
#106 = DIRECTION ( 'NONE',  ( -3.491481338843133355E-15, 1.224646799147353207E-16, -1.000000000000000000 ) ) ;
#107 = AXIS2_PLACEMENT_3D ( 'NONE', #93, #105, #50 ) ;
#108 = CARTESIAN_POINT ( 'NONE',  ( 6.982962677686265133E-15, 12.50000000000000000, 2.000000000000000000 ) ) ;
#109 = FACE_OUTER_BOUND ( 'NONE', #13, .T. ) ;
#110 = EDGE_CURVE ( 'NONE', #45, #45, #202, .T. ) ;
#111 = APPROVAL_ROLE ( '' ) ;
#112 = COORDINATED_UNIVERSAL_TIME_OFFSET ( 1, 0, .AHEAD. ) ;
#113 = PERSON_AND_ORGANIZATION ( #177, #147 ) ;
#114 = CIRCLE ( 'NONE', #83, 12.50000000000000000 ) ;
#115 = EDGE_LOOP ( 'NONE', ( #101 ) ) ;
#116 = COORDINATED_UNIVERSAL_TIME_OFFSET ( 1, 0, .AHEAD. ) ;
#117 = EDGE_CURVE ( 'NONE', #28, #28, #170, .T. ) ;
#118 = ORIENTED_EDGE ( 'NONE', *, *, #110, .F. ) ;
#119 = LOCAL_TIME ( 8, 3, 49.00000000000000000, #125 ) ;
#120 = DIRECTION ( 'NONE',  ( 4.275831445896958607E-31, 1.000000000000000000, 1.224646799147353207E-16 ) ) ;
#121 = CLOSED_SHELL ( 'NONE', ( #19, #44, #102 ) ) ;
#122 =( NAMED_UNIT ( * ) PLANE_ANGLE_UNIT ( ) SI_UNIT ( $, .RADIAN. ) );
#123 = PLANE ( 'NONE',  #84 ) ;
#124 = CARTESIAN_POINT ( 'NONE',  ( 6.982962677686265133E-15, -2.168404344971013305E-16, 1.999999999999999556 ) ) ;
#125 = COORDINATED_UNIVERSAL_TIME_OFFSET ( 1, 0, .AHEAD. ) ;
#126 = PLANE ( 'NONE',  #164 ) ;
#127 = PRODUCT_DEFINITION ( 'UNKNOWN', '', #144, #18 ) ;
#128 = CALENDAR_DATE ( 2021, 16, 12 ) ;
#129 = AXIS2_PLACEMENT_3D ( 'NONE', #65, #106, #193 ) ;
#130 = EDGE_LOOP ( 'NONE', ( #91 ) ) ;
#131 = SECURITY_CLASSIFICATION_LEVEL ( 'unclassified' ) ;
#132 = EDGE_LOOP ( 'NONE', ( #22 ) ) ;
#133 = APPROVAL ( #189, 'UNSPECIFIED' ) ;
#134 = CC_DESIGN_APPROVAL ( #59, ( #191 ) ) ;
#135 = DIRECTION ( 'NONE',  ( 3.697785493223492838E-31, 1.000000000000000000, 1.387778780781445676E-16 ) ) ;
#136 = CARTESIAN_POINT ( 'NONE',  ( 2.793185071074506684E-13, -9.797174393178826052E-15, 80.00000000000000000 ) ) ;
#137 = FACE_OUTER_BOUND ( 'NONE', #148, .T. ) ;
#138 = DIRECTION ( 'NONE',  ( 4.275831445896958607E-31, 1.000000000000000000, 1.224646799147353207E-16 ) ) ;
#139 = APPROVAL_STATUS ( 'not_yet_approved' ) ;
#140 = DIRECTION ( 'NONE',  ( -4.275831445896958607E-31, -1.000000000000000000, -1.224646799147353207E-16 ) ) ;
#141 = DATE_TIME_ROLE ( 'creation_date' ) ;
#142 = ADVANCED_BREP_SHAPE_REPRESENTATION ( '381177', ( #201, #74, #75 ), #35 ) ;
#143 = DATE_AND_TIME ( #82, #17 ) ;
#144 = PRODUCT_DEFINITION_FORMATION_WITH_SPECIFIED_SOURCE ( 'ANY', '', #55, .NOT_KNOWN. ) ;
#145 = EDGE_LOOP ( 'NONE', ( #118 ) ) ;
#146 = CC_DESIGN_DATE_AND_TIME_ASSIGNMENT ( #66, #141, ( #127 ) ) ;
#147 = ORGANIZATION ( 'UNSPECIFIED', 'UNSPECIFIED', '' ) ;
#148 = EDGE_LOOP ( 'NONE', ( #7 ) ) ;
#149 = CARTESIAN_POINT ( 'NONE',  ( 6.982962677686266711E-15, 3.999999999999990674, 2.000000000000000000 ) ) ;
#150 = PLANE ( 'NONE',  #54 ) ;
#151 = ORIENTED_EDGE ( 'NONE', *, *, #21, .T. ) ;
#152 = CC_DESIGN_PERSON_AND_ORGANIZATION_ASSIGNMENT ( #16, #160, ( #144 ) ) ;
#153 = CYLINDRICAL_SURFACE ( 'NONE', #68, 3.999999999999994671 ) ;
#154 = APPLICATION_PROTOCOL_DEFINITION ( 'international standard', 'config_control_design', 1994, #20 ) ;
#155 = FACE_OUTER_BOUND ( 'NONE', #169, .T. ) ;
#156 = APPROVAL_DATE_TIME ( #49, #14 ) ;
#157 = DIRECTION ( 'NONE',  ( -3.491481338843133355E-15, 1.224646799147353207E-16, -1.000000000000000000 ) ) ;
#158 = PERSON_AND_ORGANIZATION_ROLE ( 'design_supplier' ) ;
#159 = DATE_TIME_ROLE ( 'classification_date' ) ;
#160 = PERSON_AND_ORGANIZATION_ROLE ( 'creator' ) ;
#161 = EDGE_LOOP ( 'NONE', ( #151 ) ) ;
#162 = CC_DESIGN_APPROVAL ( #14, ( #127 ) ) ;
#163 = CC_DESIGN_DATE_AND_TIME_ASSIGNMENT ( #37, #159, ( #191 ) ) ;
#164 = AXIS2_PLACEMENT_3D ( 'NONE', #186, #167, #24 ) ;
#165 = MECHANICAL_CONTEXT ( 'NONE', #39, 'mechanical' ) ;
#166 = FACE_OUTER_BOUND ( 'NONE', #145, .T. ) ;
#167 = DIRECTION ( 'NONE',  ( -3.491481338843133355E-15, 1.224646799147353207E-16, -1.000000000000000000 ) ) ;
#168 = FACE_OUTER_BOUND ( 'NONE', #1, .T. ) ;
#169 = EDGE_LOOP ( 'NONE', ( #33 ) ) ;
#170 = CIRCLE ( 'NONE', #129, 3.999999999999990674 ) ;
#171 = CALENDAR_DATE ( 2021, 16, 12 ) ;
#172 = DIRECTION ( 'NONE',  ( 0.0000000000000000000, 1.000000000000000000, 0.0000000000000000000 ) ) ;
#173 = PERSON_AND_ORGANIZATION ( #177, #147 ) ;
#174 = AXIS2_PLACEMENT_3D ( 'NONE', #136, #42, #89 ) ;
#175 = PERSON_AND_ORGANIZATION_ROLE ( 'creator' ) ;
#176 = ORIENTED_EDGE ( 'NONE', *, *, #117, .T. ) ;
#177 = PERSON ( 'UNSPECIFIED', 'UNSPECIFIED', 'UNSPECIFIED', ('UNSPECIFIED'), ('UNSPECIFIED'), ('UNSPECIFIED') ) ;
#178 = AXIS2_PLACEMENT_3D ( 'NONE', #63, #25, #120 ) ;
#179 = ADVANCED_FACE ( 'NONE', ( #166 ), #126, .F. ) ;
#180 = CC_DESIGN_PERSON_AND_ORGANIZATION_ASSIGNMENT ( #173, #175, ( #127 ) ) ;
#181 = DIRECTION ( 'NONE',  ( -3.491481338843133355E-15, 1.224646799147353207E-16, -1.000000000000000000 ) ) ;
#182 = CARTESIAN_POINT ( 'NONE',  ( 2.137922747642659920E-30, 12.50000000000000000, 6.123254115260540545E-16 ) ) ;
#183 = FACE_OUTER_BOUND ( 'NONE', #115, .T. ) ;
#184 = DIRECTION ( 'NONE',  ( -3.491481338843133355E-15, 1.224646799147353207E-16, -1.000000000000000000 ) ) ;
#185 = PERSON_AND_ORGANIZATION ( #177, #147 ) ;
#186 = CARTESIAN_POINT ( 'NONE',  ( 2.793185071074506684E-13, 2.399615652258957667E-32, 80.00000000000000000 ) ) ;
#187 = PERSON_AND_ORGANIZATION_ROLE ( 'classification_officer' ) ;
#188 = EDGE_CURVE ( 'NONE', #90, #90, #114, .T. ) ;
#189 = APPROVAL_STATUS ( 'not_yet_approved' ) ;
#190 = CLOSED_SHELL ( 'NONE', ( #80, #12, #85, #179 ) ) ;
#191 = SECURITY_CLASSIFICATION ( '', '', #131 ) ;
#192 = DIRECTION ( 'NONE',  ( 0.0000000000000000000, 0.0000000000000000000, 1.000000000000000000 ) ) ;
#193 = DIRECTION ( 'NONE',  ( 3.851859888774480902E-31, 1.000000000000000000, 1.084202172485507022E-16 ) ) ;
#194 = VERTEX_POINT ( 'NONE', #182 ) ;
#195 = PLANE ( 'NONE',  #107 ) ;
#196 = FACE_OUTER_BOUND ( 'NONE', #161, .T. ) ;
#197 = FACE_OUTER_BOUND ( 'NONE', #130, .T. ) ;
#198 = ORIENTED_EDGE ( 'NONE', *, *, #70, .F. ) ;
#199 = APPROVAL_DATE_TIME ( #34, #133 ) ;
#200 = SHAPE_DEFINITION_REPRESENTATION ( #41, #142 ) ;
#201 = MANIFOLD_SOLID_BREP ( 'Corps-Déplacer/Copier1[1]', #190 ) ;
#202 = CIRCLE ( 'NONE', #174, 3.200000000000000622 ) ;
#203 = CALENDAR_DATE ( 2021, 16, 12 ) ;
ENDSEC;
END-ISO-10303-21;
