ISO-10303-21;
HEADER;
FILE_DESCRIPTION (( 'STEP AP203' ),
    '1' );
FILE_NAME ('381176.step',
    '2021-12-16T07:03:49',
    ( '' ),
    ( '' ),
    'SwSTEP 2.0',
    'SolidWorks 2019',
    '' );
FILE_SCHEMA (( 'CONFIG_CONTROL_DESIGN' ));
ENDSEC;

DATA;
#1 = COORDINATED_UNIVERSAL_TIME_OFFSET ( 1, 0, .AHEAD. ) ;
#2 = ADVANCED_FACE ( 'NONE', ( #192, #73 ), #155, .T. ) ;
#3 = MANIFOLD_SOLID_BREP ( 'Corps-Déplacer/Copier1[2]', #105 ) ;
#4 = CARTESIAN_POINT ( 'NONE',  ( 2.793185071074506684E-13, -9.797174393178826052E-15, 80.00000000000000000 ) ) ;
#5 = DIRECTION ( 'NONE',  ( -3.491481338843133355E-15, 1.224646799147353207E-16, -1.000000000000000000 ) ) ;
#6 = APPLICATION_PROTOCOL_DEFINITION ( 'international standard', 'config_control_design', 1994, #49 ) ;
#7 = AXIS2_PLACEMENT_3D ( 'NONE', #132, #85, #149 ) ;
#8 = EDGE_LOOP ( 'NONE', ( #83 ) ) ;
#9 =( NAMED_UNIT ( * ) PLANE_ANGLE_UNIT ( ) SI_UNIT ( $, .RADIAN. ) );
#10 = DIRECTION ( 'NONE',  ( -3.491481338843133355E-15, 1.224646799147353207E-16, -1.000000000000000000 ) ) ;
#11 = APPLICATION_PROTOCOL_DEFINITION ( 'international standard', 'config_control_design', 1994, #137 ) ;
#12 = ADVANCED_FACE ( 'NONE', ( #84, #148 ), #161, .T. ) ;
#13 = CARTESIAN_POINT ( 'NONE',  ( -1.603433279864269301E-30, 5.624086865326770786E-32, -4.592415437040687334E-16 ) ) ;
#14 = PERSON_AND_ORGANIZATION_ROLE ( 'design_supplier' ) ;
#15 = AXIS2_PLACEMENT_3D ( 'NONE', #162, #5, #38 ) ;
#16 = DATE_AND_TIME ( #159, #97 ) ;
#17 = PERSON_AND_ORGANIZATION_ROLE ( 'creator' ) ;
#18 = PRODUCT_DEFINITION_FORMATION_WITH_SPECIFIED_SOURCE ( 'ANY', '', #74, .NOT_KNOWN. ) ;
#19 = CARTESIAN_POINT ( 'NONE',  ( 0.0000000000000000000, 0.0000000000000000000, 0.0000000000000000000 ) ) ;
#20 = PLANE ( 'NONE',  #69 ) ;
#21 = VERTEX_POINT ( 'NONE', #43 ) ;
#22 = DIRECTION ( 'NONE',  ( 4.275831445896958607E-31, 1.000000000000000000, 1.224646799147353207E-16 ) ) ;
#23 = CARTESIAN_POINT ( 'NONE',  ( 6.982962677686265133E-15, 12.50000000000000000, 2.000000000000000000 ) ) ;
#24 =( LENGTH_UNIT ( ) NAMED_UNIT ( * ) SI_UNIT ( .MILLI., .METRE. ) );
#25 = CARTESIAN_POINT ( 'NONE',  ( 2.793185071074506684E-13, 1.799711739194214624E-32, 80.00000000000000000 ) ) ;
#26 = DESIGN_CONTEXT ( 'detailed design', #49, 'design' ) ;
#27 = CC_DESIGN_APPROVAL ( #88, ( #183 ) ) ;
#28 = PERSON ( 'UNSPECIFIED', 'UNSPECIFIED', 'UNSPECIFIED', ('UNSPECIFIED'), ('UNSPECIFIED'), ('UNSPECIFIED') ) ;
#29 = DIRECTION ( 'NONE',  ( 3.491481338843133355E-15, -1.224646799147353207E-16, 1.000000000000000000 ) ) ;
#30 = APPROVAL_ROLE ( '' ) ;
#31 = EDGE_LOOP ( 'NONE', ( #165 ) ) ;
#32 = LOCAL_TIME ( 8, 3, 49.00000000000000000, #40 ) ;
#33 = CC_DESIGN_PERSON_AND_ORGANIZATION_ASSIGNMENT ( #64, #14, ( #18 ) ) ;
#34 = CIRCLE ( 'NONE', #160, 3.000000000000000000 ) ;
#35 = EDGE_LOOP ( 'NONE', ( #100 ) ) ;
#36 = CARTESIAN_POINT ( 'NONE',  ( -3.206866559728538601E-30, 1.124817373065354157E-31, -9.184830874081374668E-16 ) ) ;
#37 = EDGE_CURVE ( 'NONE', #41, #41, #141, .T. ) ;
#38 = DIRECTION ( 'NONE',  ( 4.275831445896958607E-31, 1.000000000000000000, 1.224646799147353207E-16 ) ) ;
#39 = APPROVAL ( #46, 'UNSPECIFIED' ) ;
#40 = COORDINATED_UNIVERSAL_TIME_OFFSET ( 1, 0, .AHEAD. ) ;
#41 = VERTEX_POINT ( 'NONE', #164 ) ;
#42 = PLANE ( 'NONE',  #60 ) ;
#43 = CARTESIAN_POINT ( 'NONE',  ( 2.137922747642659920E-30, 12.50000000000000000, 6.123254115260540545E-16 ) ) ;
#44 = AXIS2_PLACEMENT_3D ( 'NONE', #4, #113, #101 ) ;
#45 = PRODUCT_DEFINITION_SHAPE ( 'NONE', 'NONE',  #183 ) ;
#46 = APPROVAL_STATUS ( 'not_yet_approved' ) ;
#47 = LOCAL_TIME ( 8, 3, 49.00000000000000000, #126 ) ;
#48 = SHAPE_DEFINITION_REPRESENTATION ( #45, #193 ) ;
#49 = APPLICATION_CONTEXT ( 'configuration controlled 3d designs of mechanical parts and assemblies' ) ;
#50 = CC_DESIGN_PERSON_AND_ORGANIZATION_ASSIGNMENT ( #173, #142, ( #170 ) ) ;
#51 = CLOSED_SHELL ( 'NONE', ( #199, #121, #2, #109 ) ) ;
#52 = AXIS2_PLACEMENT_3D ( 'NONE', #120, #91, #184 ) ;
#53 = CARTESIAN_POINT ( 'NONE',  ( 2.793185071074506684E-13, -9.797174393178826052E-15, 80.00000000000000000 ) ) ;
#54 = ADVANCED_FACE ( 'NONE', ( #178 ), #20, .F. ) ;
#55 = ORIENTED_EDGE ( 'NONE', *, *, #179, .T. ) ;
#56 = FACE_OUTER_BOUND ( 'NONE', #87, .T. ) ;
#57 = CC_DESIGN_DATE_AND_TIME_ASSIGNMENT ( #124, #62, ( #170 ) ) ;
#58 = ORIENTED_EDGE ( 'NONE', *, *, #37, .T. ) ;
#59 = DIRECTION ( 'NONE',  ( 5.135813185032644414E-31, 1.000000000000000000, 1.445602896647343601E-16 ) ) ;
#60 = AXIS2_PLACEMENT_3D ( 'NONE', #25, #154, #78 ) ;
#61 = PRODUCT_RELATED_PRODUCT_CATEGORY ( 'detail', '', ( #74 ) ) ;
#62 = DATE_TIME_ROLE ( 'classification_date' ) ;
#63 = APPROVAL_STATUS ( 'not_yet_approved' ) ;
#64 = PERSON_AND_ORGANIZATION ( #28, #187 ) ;
#65 = APPROVAL_ROLE ( '' ) ;
#66 = ORIENTED_EDGE ( 'NONE', *, *, #144, .T. ) ;
#67 = AXIS2_PLACEMENT_3D ( 'NONE', #13, #29, #80 ) ;
#68 = MANIFOLD_SOLID_BREP ( 'Corps-Déplacer/Copier1[1]', #51 ) ;
#69 = AXIS2_PLACEMENT_3D ( 'NONE', #72, #163, #22 ) ;
#70 = AXIS2_PLACEMENT_3D ( 'NONE', #36, #89, #197 ) ;
#71 = VERTEX_POINT ( 'NONE', #23 ) ;
#72 = CARTESIAN_POINT ( 'NONE',  ( 6.982962677686263555E-15, 9.373498641636610596E-32, 1.999999999999999112 ) ) ;
#73 = FACE_BOUND ( 'NONE', #151, .T. ) ;
#74 = PRODUCT ( '381176', '381176', '', ( #134 ) ) ;
#75 = CC_DESIGN_PERSON_AND_ORGANIZATION_ASSIGNMENT ( #136, #117, ( #74 ) ) ;
#76 = CIRCLE ( 'NONE', #70, 12.50000000000000000 ) ;
#77 = DIRECTION ( 'NONE',  ( -3.491481338843133355E-15, 1.224646799147353207E-16, -1.000000000000000000 ) ) ;
#78 = DIRECTION ( 'NONE',  ( 4.275831445896958607E-31, 1.000000000000000000, 1.224646799147353207E-16 ) ) ;
#79 = CC_DESIGN_SECURITY_CLASSIFICATION ( #170, ( #18 ) ) ;
#80 = DIRECTION ( 'NONE',  ( -4.275831445896958607E-31, -1.000000000000000000, -1.224646799147353207E-16 ) ) ;
#81 = ADVANCED_FACE ( 'NONE', ( #152 ), #185, .F. ) ;
#82 = APPROVAL_DATE_TIME ( #202, #39 ) ;
#83 = ORIENTED_EDGE ( 'NONE', *, *, #150, .T. ) ;
#84 = FACE_OUTER_BOUND ( 'NONE', #115, .T. ) ;
#85 = DIRECTION ( 'NONE',  ( 0.0000000000000000000, 0.0000000000000000000, 1.000000000000000000 ) ) ;
#86 = ORIENTED_EDGE ( 'NONE', *, *, #37, .F. ) ;
#87 = EDGE_LOOP ( 'NONE', ( #55 ) ) ;
#88 = APPROVAL ( #116, 'UNSPECIFIED' ) ;
#89 = DIRECTION ( 'NONE',  ( -3.491481338843133355E-15, 1.224646799147353207E-16, -1.000000000000000000 ) ) ;
#90 = APPROVAL_PERSON_ORGANIZATION ( #176, #146, #65 ) ;
#91 = DIRECTION ( 'NONE',  ( 3.491481338843133355E-15, -1.224646799147353207E-16, 1.000000000000000000 ) ) ;
#92 = VERTEX_POINT ( 'NONE', #180 ) ;
#93 = CC_DESIGN_APPROVAL ( #39, ( #170 ) ) ;
#94 = APPROVAL_DATE_TIME ( #175, #146 ) ;
#95 = CIRCLE ( 'NONE', #157, 2.999999999999991118 ) ;
#96 = CALENDAR_DATE ( 2021, 16, 12 ) ;
#97 = LOCAL_TIME ( 8, 3, 49.00000000000000000, #122 ) ;
#98 = DIRECTION ( 'NONE',  ( -3.491481338843133355E-15, 1.224646799147353207E-16, -1.000000000000000000 ) ) ;
#99 = DIRECTION ( 'NONE',  ( -3.491481338843133355E-15, 1.224646799147353207E-16, -1.000000000000000000 ) ) ;
#100 = ORIENTED_EDGE ( 'NONE', *, *, #150, .F. ) ;
#101 = DIRECTION ( 'NONE',  ( 0.0000000000000000000, 1.000000000000000000, 0.0000000000000000000 ) ) ;
#102 = CALENDAR_DATE ( 2021, 16, 12 ) ;
#103 =( NAMED_UNIT ( * ) SI_UNIT ( $, .STERADIAN. ) SOLID_ANGLE_UNIT ( ) );
#104 = CARTESIAN_POINT ( 'NONE',  ( 6.982962677686266711E-15, 2.999999999999990674, 2.000000000000000000 ) ) ;
#105 = CLOSED_SHELL ( 'NONE', ( #81, #12, #54 ) ) ;
#106 = AXIS2_PLACEMENT_3D ( 'NONE', #108, #143, #125 ) ;
#107 = CC_DESIGN_PERSON_AND_ORGANIZATION_ASSIGNMENT ( #172, #17, ( #18 ) ) ;
#108 = CARTESIAN_POINT ( 'NONE',  ( 6.982962677686260400E-15, -2.449293598294704442E-16, 1.999999999999998224 ) ) ;
#109 = ADVANCED_FACE ( 'NONE', ( #171 ), #42, .F. ) ;
#110 = SECURITY_CLASSIFICATION_LEVEL ( 'unclassified' ) ;
#111 = CYLINDRICAL_SURFACE ( 'NONE', #139, 2.999999999999995559 ) ;
#112 = ORIENTED_EDGE ( 'NONE', *, *, #144, .F. ) ;
#113 = DIRECTION ( 'NONE',  ( -3.491481338843133355E-15, 1.224646799147353207E-16, -1.000000000000000000 ) ) ;
#114 = APPROVAL_PERSON_ORGANIZATION ( #189, #39, #30 ) ;
#115 = EDGE_LOOP ( 'NONE', ( #194 ) ) ;
#116 = APPROVAL_STATUS ( 'not_yet_approved' ) ;
#117 = PERSON_AND_ORGANIZATION_ROLE ( 'design_owner' ) ;
#118 = UNCERTAINTY_MEASURE_WITH_UNIT (LENGTH_MEASURE( 1.000000000000000082E-05 ), #24, 'distance_accuracy_value', 'NONE');
#119 = EDGE_LOOP ( 'NONE', ( #112 ) ) ;
#120 = CARTESIAN_POINT ( 'NONE',  ( 6.982962677686266711E-15, -2.891205793294687201E-16, 2.000000000000000000 ) ) ;
#121 = ADVANCED_FACE ( 'NONE', ( #138, #198 ), #111, .T. ) ;
#122 = COORDINATED_UNIVERSAL_TIME_OFFSET ( 1, 0, .AHEAD. ) ;
#123 = DIRECTION ( 'NONE',  ( 4.275831445896959482E-31, 1.000000000000000000, 1.224646799147353207E-16 ) ) ;
#124 = DATE_AND_TIME ( #127, #158 ) ;
#125 = DIRECTION ( 'NONE',  ( 3.697785493223492838E-31, 1.000000000000000000, 1.387778780781445676E-16 ) ) ;
#126 = COORDINATED_UNIVERSAL_TIME_OFFSET ( 1, 0, .AHEAD. ) ;
#127 = CALENDAR_DATE ( 2021, 16, 12 ) ;
#128 = CC_DESIGN_PERSON_AND_ORGANIZATION_ASSIGNMENT ( #156, #190, ( #183 ) ) ;
#129 =( GEOMETRIC_REPRESENTATION_CONTEXT ( 3 ) GLOBAL_UNCERTAINTY_ASSIGNED_CONTEXT ( ( #118 ) ) GLOBAL_UNIT_ASSIGNED_CONTEXT ( ( #24, #9, #103 ) ) REPRESENTATION_CONTEXT ( 'NONE', 'WORKASPACE' ) );
#130 = PERSON_AND_ORGANIZATION ( #28, #187 ) ;
#131 = CC_DESIGN_APPROVAL ( #146, ( #18 ) ) ;
#132 = CARTESIAN_POINT ( 'NONE',  ( 0.0000000000000000000, 0.0000000000000000000, 0.0000000000000000000 ) ) ;
#133 = EDGE_LOOP ( 'NONE', ( #86 ) ) ;
#134 = MECHANICAL_CONTEXT ( 'NONE', #137, 'mechanical' ) ;
#135 = ORIENTED_EDGE ( 'NONE', *, *, #166, .T. ) ;
#136 = PERSON_AND_ORGANIZATION ( #28, #187 ) ;
#137 = APPLICATION_CONTEXT ( 'configuration controlled 3d designs of mechanical parts and assemblies' ) ;
#138 = FACE_OUTER_BOUND ( 'NONE', #31, .T. ) ;
#139 = AXIS2_PLACEMENT_3D ( 'NONE', #19, #98, #123 ) ;
#140 = DATE_TIME_ROLE ( 'creation_date' ) ;
#141 = CIRCLE ( 'NONE', #44, 2.400000000000000799 ) ;
#142 = PERSON_AND_ORGANIZATION_ROLE ( 'classification_officer' ) ;
#143 = DIRECTION ( 'NONE',  ( -3.491481338843133355E-15, 1.224646799147353207E-16, -1.000000000000000000 ) ) ;
#144 = EDGE_CURVE ( 'NONE', #71, #71, #195, .T. ) ;
#145 = APPROVAL_DATE_TIME ( #203, #88 ) ;
#146 = APPROVAL ( #63, 'UNSPECIFIED' ) ;
#147 = DIRECTION ( 'NONE',  ( 0.0000000000000000000, 1.000000000000000000, 0.0000000000000000000 ) ) ;
#148 = FACE_OUTER_BOUND ( 'NONE', #181, .T. ) ;
#149 = DIRECTION ( 'NONE',  ( 1.000000000000000000, 0.0000000000000000000, 0.0000000000000000000 ) ) ;
#150 = EDGE_CURVE ( 'NONE', #92, #92, #34, .T. ) ;
#151 = EDGE_LOOP ( 'NONE', ( #58 ) ) ;
#152 = FACE_OUTER_BOUND ( 'NONE', #196, .T. ) ;
#153 = PLANE ( 'NONE',  #52 ) ;
#154 = DIRECTION ( 'NONE',  ( -3.491481338843133355E-15, 1.224646799147353207E-16, -1.000000000000000000 ) ) ;
#155 = CONICAL_SURFACE ( 'NONE', #168, 2.400000000000000799, 0.7853981633974450594 ) ;
#156 = PERSON_AND_ORGANIZATION ( #28, #187 ) ;
#157 = AXIS2_PLACEMENT_3D ( 'NONE', #167, #10, #59 ) ;
#158 = LOCAL_TIME ( 8, 3, 49.00000000000000000, #1 ) ;
#159 = CALENDAR_DATE ( 2021, 16, 12 ) ;
#160 = AXIS2_PLACEMENT_3D ( 'NONE', #174, #77, #169 ) ;
#161 = CYLINDRICAL_SURFACE ( 'NONE', #15, 12.50000000000000000 ) ;
#162 = CARTESIAN_POINT ( 'NONE',  ( 0.0000000000000000000, 0.0000000000000000000, 0.0000000000000000000 ) ) ;
#163 = DIRECTION ( 'NONE',  ( -3.491481338843133355E-15, 1.224646799147353207E-16, -1.000000000000000000 ) ) ;
#164 = CARTESIAN_POINT ( 'NONE',  ( 2.793185071074506684E-13, 2.399999999999990585, 80.00000000000000000 ) ) ;
#165 = ORIENTED_EDGE ( 'NONE', *, *, #179, .F. ) ;
#166 = EDGE_CURVE ( 'NONE', #21, #21, #76, .T. ) ;
#167 = CARTESIAN_POINT ( 'NONE',  ( 6.982962677686265133E-15, -2.449293598294705921E-16, 1.999999999999999556 ) ) ;
#168 = AXIS2_PLACEMENT_3D ( 'NONE', #53, #99, #147 ) ;
#169 = DIRECTION ( 'NONE',  ( 0.0000000000000000000, 1.000000000000000000, 0.0000000000000000000 ) ) ;
#170 = SECURITY_CLASSIFICATION ( '', '', #110 ) ;
#171 = FACE_OUTER_BOUND ( 'NONE', #133, .T. ) ;
#172 = PERSON_AND_ORGANIZATION ( #28, #187 ) ;
#173 = PERSON_AND_ORGANIZATION ( #28, #187 ) ;
#174 = CARTESIAN_POINT ( 'NONE',  ( 2.772236183041447758E-13, -9.723695585229984332E-15, 79.39999999999999147 ) ) ;
#175 = DATE_AND_TIME ( #191, #200 ) ;
#176 = PERSON_AND_ORGANIZATION ( #28, #187 ) ;
#177 = APPROVAL_PERSON_ORGANIZATION ( #130, #88, #182 ) ;
#178 = FACE_OUTER_BOUND ( 'NONE', #119, .T. ) ;
#179 = EDGE_CURVE ( 'NONE', #186, #186, #95, .T. ) ;
#180 = CARTESIAN_POINT ( 'NONE',  ( 2.772236183041447758E-13, 2.999999999999990674, 79.39999999999999147 ) ) ;
#181 = EDGE_LOOP ( 'NONE', ( #66 ) ) ;
#182 = APPROVAL_ROLE ( '' ) ;
#183 = PRODUCT_DEFINITION ( 'UNKNOWN', '', #18, #26 ) ;
#184 = DIRECTION ( 'NONE',  ( -4.275831445896958607E-31, -1.000000000000000000, -1.224646799147353207E-16 ) ) ;
#185 = PLANE ( 'NONE',  #67 ) ;
#186 = VERTEX_POINT ( 'NONE', #104 ) ;
#187 = ORGANIZATION ( 'UNSPECIFIED', 'UNSPECIFIED', '' ) ;
#188 = CC_DESIGN_DATE_AND_TIME_ASSIGNMENT ( #16, #140, ( #183 ) ) ;
#189 = PERSON_AND_ORGANIZATION ( #28, #187 ) ;
#190 = PERSON_AND_ORGANIZATION_ROLE ( 'creator' ) ;
#191 = CALENDAR_DATE ( 2021, 16, 12 ) ;
#192 = FACE_OUTER_BOUND ( 'NONE', #35, .T. ) ;
#193 = ADVANCED_BREP_SHAPE_REPRESENTATION ( '381176', ( #68, #3, #7 ), #129 ) ;
#194 = ORIENTED_EDGE ( 'NONE', *, *, #166, .F. ) ;
#195 = CIRCLE ( 'NONE', #106, 12.50000000000000000 ) ;
#196 = EDGE_LOOP ( 'NONE', ( #135 ) ) ;
#197 = DIRECTION ( 'NONE',  ( 4.275831445896958607E-31, 1.000000000000000000, 1.224646799147353207E-16 ) ) ;
#198 = FACE_OUTER_BOUND ( 'NONE', #8, .T. ) ;
#199 = ADVANCED_FACE ( 'NONE', ( #56 ), #153, .F. ) ;
#200 = LOCAL_TIME ( 8, 3, 49.00000000000000000, #201 ) ;
#201 = COORDINATED_UNIVERSAL_TIME_OFFSET ( 1, 0, .AHEAD. ) ;
#202 = DATE_AND_TIME ( #96, #47 ) ;
#203 = DATE_AND_TIME ( #102, #32 ) ;
ENDSEC;
END-ISO-10303-21;
