ISO-10303-21;
HEADER;
FILE_DESCRIPTION (( 'STEP AP203' ),
    '1' );
FILE_NAME ('381175.step',
    '2021-12-16T07:03:48',
    ( '' ),
    ( '' ),
    'SwSTEP 2.0',
    'SolidWorks 2019',
    '' );
FILE_SCHEMA (( 'CONFIG_CONTROL_DESIGN' ));
ENDSEC;

DATA;
#1 = CC_DESIGN_PERSON_AND_ORGANIZATION_ASSIGNMENT ( #194, #56, ( #52 ) ) ;
#2 = AXIS2_PLACEMENT_3D ( 'NONE', #65, #21, #171 ) ;
#3 = PERSON_AND_ORGANIZATION ( #135, #172 ) ;
#4 = CIRCLE ( 'NONE', #200, 2.400000000000000799 ) ;
#5 = APPROVAL_STATUS ( 'not_yet_approved' ) ;
#6 = AXIS2_PLACEMENT_3D ( 'NONE', #15, #49, #186 ) ;
#7 = EDGE_CURVE ( 'NONE', #126, #126, #55, .T. ) ;
#8 = EDGE_LOOP ( 'NONE', ( #25 ) ) ;
#9 = FACE_OUTER_BOUND ( 'NONE', #13, .T. ) ;
#10 = ORIENTED_EDGE ( 'NONE', *, *, #178, .T. ) ;
#11 = FACE_BOUND ( 'NONE', #62, .T. ) ;
#12 = APPLICATION_CONTEXT ( 'configuration controlled 3d designs of mechanical parts and assemblies' ) ;
#13 = EDGE_LOOP ( 'NONE', ( #198 ) ) ;
#14 = ADVANCED_FACE ( 'NONE', ( #90 ), #42, .F. ) ;
#15 = CARTESIAN_POINT ( 'NONE',  ( 0.0000000000000000000, 0.0000000000000000000, 0.0000000000000000000 ) ) ;
#16 = APPROVAL ( #153, 'UNSPECIFIED' ) ;
#17 = CC_DESIGN_APPROVAL ( #119, ( #52 ) ) ;
#18 = APPROVAL_ROLE ( '' ) ;
#19 = CARTESIAN_POINT ( 'NONE',  ( 2.137922747642659920E-30, 12.50000000000000000, 6.123254115260540545E-16 ) ) ;
#20 = ADVANCED_BREP_SHAPE_REPRESENTATION ( '381175', ( #57, #61, #6 ), #67 ) ;
#21 = DIRECTION ( 'NONE',  ( -3.491481338843133355E-15, 1.224646799147353207E-16, -1.000000000000000000 ) ) ;
#22 = COORDINATED_UNIVERSAL_TIME_OFFSET ( 1, 0, .AHEAD. ) ;
#23 = CALENDAR_DATE ( 2021, 16, 12 ) ;
#24 = ADVANCED_FACE ( 'NONE', ( #59, #151 ), #150, .T. ) ;
#25 = ORIENTED_EDGE ( 'NONE', *, *, #85, .F. ) ;
#26 = LOCAL_TIME ( 8, 3, 48.00000000000000000, #22 ) ;
#27 = CARTESIAN_POINT ( 'NONE',  ( -1.603433279864269301E-30, 5.624086865326770786E-32, -4.592415437040687334E-16 ) ) ;
#28 = FACE_OUTER_BOUND ( 'NONE', #87, .T. ) ;
#29 = DIRECTION ( 'NONE',  ( -3.491481338843133355E-15, 1.224646799147353207E-16, -1.000000000000000000 ) ) ;
#30 = CIRCLE ( 'NONE', #110, 12.50000000000000000 ) ;
#31 = DIRECTION ( 'NONE',  ( 0.0000000000000000000, 1.000000000000000000, 0.0000000000000000000 ) ) ;
#32 = CARTESIAN_POINT ( 'NONE',  ( -3.206866559728538601E-30, 1.124817373065354157E-31, -9.184830874081374668E-16 ) ) ;
#33 = CARTESIAN_POINT ( 'NONE',  ( 5.237222008264697666E-15, -2.168404344971014045E-16, 1.499999999999999334 ) ) ;
#34 = CARTESIAN_POINT ( 'NONE',  ( 2.772236183041447758E-13, 2.999999999999990674, 79.39999999999999147 ) ) ;
#35 = AXIS2_PLACEMENT_3D ( 'NONE', #133, #104, #201 ) ;
#36 = AXIS2_PLACEMENT_3D ( 'NONE', #123, #40, #136 ) ;
#37 = PRODUCT_RELATED_PRODUCT_CATEGORY ( 'detail', '', ( #41 ) ) ;
#38 = PERSON_AND_ORGANIZATION ( #135, #172 ) ;
#39 = ORIENTED_EDGE ( 'NONE', *, *, #7, .F. ) ;
#40 = DIRECTION ( 'NONE',  ( -3.491481338843133355E-15, 1.224646799147353207E-16, -1.000000000000000000 ) ) ;
#41 = PRODUCT ( '381175', '381175', '', ( #112 ) ) ;
#42 = PLANE ( 'NONE',  #122 ) ;
#43 = ADVANCED_FACE ( 'NONE', ( #28, #11 ), #163, .T. ) ;
#44 = CC_DESIGN_DATE_AND_TIME_ASSIGNMENT ( #117, #192, ( #52 ) ) ;
#45 = PERSON_AND_ORGANIZATION ( #135, #172 ) ;
#46 = DIRECTION ( 'NONE',  ( -3.491481338843133355E-15, 1.224646799147353207E-16, -1.000000000000000000 ) ) ;
#47 = FACE_OUTER_BOUND ( 'NONE', #193, .T. ) ;
#48 = CLOSED_SHELL ( 'NONE', ( #160, #24, #43, #118 ) ) ;
#49 = DIRECTION ( 'NONE',  ( 0.0000000000000000000, 0.0000000000000000000, 1.000000000000000000 ) ) ;
#50 = CARTESIAN_POINT ( 'NONE',  ( 5.237222008264696877E-15, -1.836970198721028948E-16, 1.499999999999999112 ) ) ;
#51 = SHAPE_DEFINITION_REPRESENTATION ( #187, #20 ) ;
#53 = PRODUCT_DEFINITION ( 'UNKNOWN', '', #154, #116 ) ;
#52 = SECURITY_CLASSIFICATION ( '', '', #164 ) ;
#54 = APPROVAL_ROLE ( '' ) ;
#55 = CIRCLE ( 'NONE', #158, 3.000000000000000000 ) ;
#56 = PERSON_AND_ORGANIZATION_ROLE ( 'classification_officer' ) ;
#57 = MANIFOLD_SOLID_BREP ( 'Corps-Déplacer/Copier1[1]', #48 ) ;
#58 = ORIENTED_EDGE ( 'NONE', *, *, #85, .T. ) ;
#59 = FACE_OUTER_BOUND ( 'NONE', #8, .T. ) ;
#60 = PLANE ( 'NONE',  #149 ) ;
#61 = MANIFOLD_SOLID_BREP ( 'Corps-Déplacer/Copier1[2]', #86 ) ;
#62 = EDGE_LOOP ( 'NONE', ( #10 ) ) ;
#63 = AXIS2_PLACEMENT_3D ( 'NONE', #169, #29, #202 ) ;
#64 = APPLICATION_PROTOCOL_DEFINITION ( 'international standard', 'config_control_design', 1994, #12 ) ;
#65 = CARTESIAN_POINT ( 'NONE',  ( 0.0000000000000000000, 0.0000000000000000000, 0.0000000000000000000 ) ) ;
#66 = APPROVAL_ROLE ( '' ) ;
#67 =( GEOMETRIC_REPRESENTATION_CONTEXT ( 3 ) GLOBAL_UNCERTAINTY_ASSIGNED_CONTEXT ( ( #91 ) ) GLOBAL_UNIT_ASSIGNED_CONTEXT ( ( #137, #107, #93 ) ) REPRESENTATION_CONTEXT ( 'NONE', 'WORKASPACE' ) );
#68 = CALENDAR_DATE ( 2021, 16, 12 ) ;
#69 = COORDINATED_UNIVERSAL_TIME_OFFSET ( 1, 0, .AHEAD. ) ;
#70 = CARTESIAN_POINT ( 'NONE',  ( 2.793185071074506684E-13, -9.797174393178826052E-15, 80.00000000000000000 ) ) ;
#71 = APPROVAL_PERSON_ORGANIZATION ( #177, #119, #54 ) ;
#72 = CC_DESIGN_PERSON_AND_ORGANIZATION_ASSIGNMENT ( #45, #106, ( #41 ) ) ;
#73 = DIRECTION ( 'NONE',  ( 3.491481338843133355E-15, -1.224646799147353207E-16, 1.000000000000000000 ) ) ;
#74 = DIRECTION ( 'NONE',  ( 4.275831445896958607E-31, 1.000000000000000000, 1.224646799147353207E-16 ) ) ;
#75 = DIRECTION ( 'NONE',  ( 4.314083075427408311E-31, 1.000000000000000000, 1.214306433183764966E-16 ) ) ;
#76 = LOCAL_TIME ( 8, 3, 48.00000000000000000, #115 ) ;
#77 = VERTEX_POINT ( 'NONE', #94 ) ;
#78 = CARTESIAN_POINT ( 'NONE',  ( 2.793185071074506684E-13, 2.399999999999990585, 80.00000000000000000 ) ) ;
#79 = CALENDAR_DATE ( 2021, 16, 12 ) ;
#80 = CC_DESIGN_PERSON_AND_ORGANIZATION_ASSIGNMENT ( #161, #147, ( #154 ) ) ;
#81 = DATE_AND_TIME ( #188, #191 ) ;
#82 = APPROVAL_DATE_TIME ( #81, #16 ) ;
#83 = APPROVAL_DATE_TIME ( #143, #119 ) ;
#84 = EDGE_LOOP ( 'NONE', ( #199 ) ) ;
#85 = EDGE_CURVE ( 'NONE', #77, #77, #195, .T. ) ;
#86 = CLOSED_SHELL ( 'NONE', ( #14, #175, #98 ) ) ;
#87 = EDGE_LOOP ( 'NONE', ( #39 ) ) ;
#88 = CC_DESIGN_APPROVAL ( #16, ( #53 ) ) ;
#89 = DIRECTION ( 'NONE',  ( -3.491481338843133355E-15, 1.224646799147353207E-16, -1.000000000000000000 ) ) ;
#90 = FACE_OUTER_BOUND ( 'NONE', #184, .T. ) ;
#91 = UNCERTAINTY_MEASURE_WITH_UNIT (LENGTH_MEASURE( 1.000000000000000082E-05 ), #137, 'distance_accuracy_value', 'NONE');
#92 = AXIS2_PLACEMENT_3D ( 'NONE', #33, #141, #152 ) ;
#93 =( NAMED_UNIT ( * ) SI_UNIT ( $, .STERADIAN. ) SOLID_ANGLE_UNIT ( ) );
#94 = CARTESIAN_POINT ( 'NONE',  ( 5.237222008264699244E-15, 2.999999999999991562, 1.499999999999999778 ) ) ;
#95 = PLANE ( 'NONE',  #92 ) ;
#96 = DIRECTION ( 'NONE',  ( -3.491481338843133355E-15, 1.224646799147353207E-16, -1.000000000000000000 ) ) ;
#97 = VERTEX_POINT ( 'NONE', #142 ) ;
#98 = ADVANCED_FACE ( 'NONE', ( #9 ), #60, .F. ) ;
#99 = CALENDAR_DATE ( 2021, 16, 12 ) ;
#100 = PERSON_AND_ORGANIZATION_ROLE ( 'design_supplier' ) ;
#101 = ORIENTED_EDGE ( 'NONE', *, *, #7, .T. ) ;
#102 = APPROVAL_PERSON_ORGANIZATION ( #127, #16, #18 ) ;
#103 = CARTESIAN_POINT ( 'NONE',  ( 2.772236183041447758E-13, -9.723695585229984332E-15, 79.39999999999999147 ) ) ;
#104 = DIRECTION ( 'NONE',  ( -3.491481338843133355E-15, 1.224646799147353207E-16, -1.000000000000000000 ) ) ;
#105 = ORIENTED_EDGE ( 'NONE', *, *, #144, .T. ) ;
#106 = PERSON_AND_ORGANIZATION_ROLE ( 'design_owner' ) ;
#107 =( NAMED_UNIT ( * ) PLANE_ANGLE_UNIT ( ) SI_UNIT ( $, .RADIAN. ) );
#108 = CC_DESIGN_PERSON_AND_ORGANIZATION_ASSIGNMENT ( #38, #100, ( #154 ) ) ;
#109 = CYLINDRICAL_SURFACE ( 'NONE', #2, 12.50000000000000000 ) ;
#110 = AXIS2_PLACEMENT_3D ( 'NONE', #50, #96, #75 ) ;
#111 = DIRECTION ( 'NONE',  ( -3.491481338843133355E-15, 1.224646799147353207E-16, -1.000000000000000000 ) ) ;
#112 = MECHANICAL_CONTEXT ( 'NONE', #124, 'mechanical' ) ;
#113 = APPROVAL_STATUS ( 'not_yet_approved' ) ;
#114 = LOCAL_TIME ( 8, 3, 48.00000000000000000, #69 ) ;
#115 = COORDINATED_UNIVERSAL_TIME_OFFSET ( 1, 0, .AHEAD. ) ;
#116 = DESIGN_CONTEXT ( 'detailed design', #12, 'design' ) ;
#117 = DATE_AND_TIME ( #68, #167 ) ;
#118 = ADVANCED_FACE ( 'NONE', ( #180 ), #182, .F. ) ;
#119 = APPROVAL ( #113, 'UNSPECIFIED' ) ;
#120 = DIRECTION ( 'NONE',  ( -3.491481338843133355E-15, 1.224646799147353207E-16, -1.000000000000000000 ) ) ;
#121 = EDGE_LOOP ( 'NONE', ( #185 ) ) ;
#122 = AXIS2_PLACEMENT_3D ( 'NONE', #27, #73, #148 ) ;
#123 = CARTESIAN_POINT ( 'NONE',  ( 0.0000000000000000000, 0.0000000000000000000, 0.0000000000000000000 ) ) ;
#124 = APPLICATION_CONTEXT ( 'configuration controlled 3d designs of mechanical parts and assemblies' ) ;
#125 = CARTESIAN_POINT ( 'NONE',  ( 5.237222008264696877E-15, -1.369518533665898586E-16, 1.499999999999999112 ) ) ;
#126 = VERTEX_POINT ( 'NONE', #34 ) ;
#127 = PERSON_AND_ORGANIZATION ( #135, #172 ) ;
#128 = COORDINATED_UNIVERSAL_TIME_OFFSET ( 1, 0, .AHEAD. ) ;
#129 = CARTESIAN_POINT ( 'NONE',  ( 2.793185071074506684E-13, -9.797174393178826052E-15, 80.00000000000000000 ) ) ;
#130 = CC_DESIGN_SECURITY_CLASSIFICATION ( #52, ( #154 ) ) ;
#131 = COORDINATED_UNIVERSAL_TIME_OFFSET ( 1, 0, .AHEAD. ) ;
#132 = DATE_AND_TIME ( #79, #26 ) ;
#133 = CARTESIAN_POINT ( 'NONE',  ( 5.237222008264697666E-15, -1.836970198721029194E-16, 1.499999999999999334 ) ) ;
#134 = EDGE_LOOP ( 'NONE', ( #101 ) ) ;
#135 = PERSON ( 'UNSPECIFIED', 'UNSPECIFIED', 'UNSPECIFIED', ('UNSPECIFIED'), ('UNSPECIFIED'), ('UNSPECIFIED') ) ;
#136 = DIRECTION ( 'NONE',  ( 4.275831445896959482E-31, 1.000000000000000000, 1.224646799147353207E-16 ) ) ;
#137 =( LENGTH_UNIT ( ) NAMED_UNIT ( * ) SI_UNIT ( .MILLI., .METRE. ) );
#138 = APPROVAL ( #5, 'UNSPECIFIED' ) ;
#139 = FACE_OUTER_BOUND ( 'NONE', #170, .T. ) ;
#140 = CC_DESIGN_APPROVAL ( #138, ( #154 ) ) ;
#141 = DIRECTION ( 'NONE',  ( 3.491481338843133355E-15, -1.224646799147353207E-16, 1.000000000000000000 ) ) ;
#142 = CARTESIAN_POINT ( 'NONE',  ( 5.237222008264702400E-15, 12.50000000000000000, 1.500000000000000666 ) ) ;
#143 = DATE_AND_TIME ( #23, #76 ) ;
#144 = EDGE_CURVE ( 'NONE', #155, #155, #176, .T. ) ;
#145 = PERSON_AND_ORGANIZATION_ROLE ( 'creator' ) ;
#146 = CC_DESIGN_DATE_AND_TIME_ASSIGNMENT ( #190, #162, ( #53 ) ) ;
#147 = PERSON_AND_ORGANIZATION_ROLE ( 'creator' ) ;
#148 = DIRECTION ( 'NONE',  ( -4.275831445896958607E-31, -1.000000000000000000, -1.224646799147353207E-16 ) ) ;
#149 = AXIS2_PLACEMENT_3D ( 'NONE', #125, #120, #74 ) ;
#150 = CYLINDRICAL_SURFACE ( 'NONE', #36, 2.999999999999995559 ) ;
#151 = FACE_OUTER_BOUND ( 'NONE', #134, .T. ) ;
#152 = DIRECTION ( 'NONE',  ( -4.275831445896958607E-31, -1.000000000000000000, -1.224646799147353207E-16 ) ) ;
#153 = APPROVAL_STATUS ( 'not_yet_approved' ) ;
#154 = PRODUCT_DEFINITION_FORMATION_WITH_SPECIFIED_SOURCE ( 'ANY', '', #41, .NOT_KNOWN. ) ;
#155 = VERTEX_POINT ( 'NONE', #19 ) ;
#156 = DIRECTION ( 'NONE',  ( 4.275831445896958607E-31, 1.000000000000000000, 1.224646799147353207E-16 ) ) ;
#157 = APPROVAL_DATE_TIME ( #132, #138 ) ;
#158 = AXIS2_PLACEMENT_3D ( 'NONE', #103, #168, #31 ) ;
#159 = APPROVAL_PERSON_ORGANIZATION ( #3, #138, #66 ) ;
#160 = ADVANCED_FACE ( 'NONE', ( #47 ), #95, .F. ) ;
#161 = PERSON_AND_ORGANIZATION ( #135, #172 ) ;
#162 = DATE_TIME_ROLE ( 'creation_date' ) ;
#163 = CONICAL_SURFACE ( 'NONE', #183, 2.400000000000000799, 0.7853981633974450594 ) ;
#164 = SECURITY_CLASSIFICATION_LEVEL ( 'unclassified' ) ;
#165 = ORIENTED_EDGE ( 'NONE', *, *, #181, .T. ) ;
#166 = AXIS2_PLACEMENT_3D ( 'NONE', #32, #111, #156 ) ;
#167 = LOCAL_TIME ( 8, 3, 48.00000000000000000, #131 ) ;
#168 = DIRECTION ( 'NONE',  ( -3.491481338843133355E-15, 1.224646799147353207E-16, -1.000000000000000000 ) ) ;
#169 = CARTESIAN_POINT ( 'NONE',  ( 2.793185071074506684E-13, 1.799711739194214624E-32, 80.00000000000000000 ) ) ;
#170 = EDGE_LOOP ( 'NONE', ( #165 ) ) ;
#171 = DIRECTION ( 'NONE',  ( 4.275831445896958607E-31, 1.000000000000000000, 1.224646799147353207E-16 ) ) ;
#172 = ORGANIZATION ( 'UNSPECIFIED', 'UNSPECIFIED', '' ) ;
#173 = DIRECTION ( 'NONE',  ( 0.0000000000000000000, 1.000000000000000000, 0.0000000000000000000 ) ) ;
#174 = FACE_OUTER_BOUND ( 'NONE', #121, .T. ) ;
#175 = ADVANCED_FACE ( 'NONE', ( #174, #139 ), #109, .T. ) ;
#176 = CIRCLE ( 'NONE', #166, 12.50000000000000000 ) ;
#177 = PERSON_AND_ORGANIZATION ( #135, #172 ) ;
#178 = EDGE_CURVE ( 'NONE', #203, #203, #4, .T. ) ;
#179 = PERSON_AND_ORGANIZATION ( #135, #172 ) ;
#180 = FACE_OUTER_BOUND ( 'NONE', #84, .T. ) ;
#181 = EDGE_CURVE ( 'NONE', #97, #97, #30, .T. ) ;
#182 = PLANE ( 'NONE',  #63 ) ;
#183 = AXIS2_PLACEMENT_3D ( 'NONE', #70, #89, #196 ) ;
#184 = EDGE_LOOP ( 'NONE', ( #105 ) ) ;
#185 = ORIENTED_EDGE ( 'NONE', *, *, #144, .F. ) ;
#186 = DIRECTION ( 'NONE',  ( 1.000000000000000000, 0.0000000000000000000, 0.0000000000000000000 ) ) ;
#187 = PRODUCT_DEFINITION_SHAPE ( 'NONE', 'NONE',  #53 ) ;
#188 = CALENDAR_DATE ( 2021, 16, 12 ) ;
#189 = APPLICATION_PROTOCOL_DEFINITION ( 'international standard', 'config_control_design', 1994, #124 ) ;
#190 = DATE_AND_TIME ( #99, #114 ) ;
#191 = LOCAL_TIME ( 8, 3, 48.00000000000000000, #128 ) ;
#192 = DATE_TIME_ROLE ( 'classification_date' ) ;
#193 = EDGE_LOOP ( 'NONE', ( #58 ) ) ;
#194 = PERSON_AND_ORGANIZATION ( #135, #172 ) ;
#195 = CIRCLE ( 'NONE', #35, 2.999999999999991562 ) ;
#196 = DIRECTION ( 'NONE',  ( 0.0000000000000000000, 1.000000000000000000, 0.0000000000000000000 ) ) ;
#197 = CC_DESIGN_PERSON_AND_ORGANIZATION_ASSIGNMENT ( #179, #145, ( #53 ) ) ;
#198 = ORIENTED_EDGE ( 'NONE', *, *, #181, .F. ) ;
#199 = ORIENTED_EDGE ( 'NONE', *, *, #178, .F. ) ;
#200 = AXIS2_PLACEMENT_3D ( 'NONE', #129, #46, #173 ) ;
#201 = DIRECTION ( 'NONE',  ( 5.135813185032643538E-31, 1.000000000000000000, 1.445602896647343354E-16 ) ) ;
#202 = DIRECTION ( 'NONE',  ( 4.275831445896958607E-31, 1.000000000000000000, 1.224646799147353207E-16 ) ) ;
#203 = VERTEX_POINT ( 'NONE', #78 ) ;
ENDSEC;
END-ISO-10303-21;
