ISO-10303-21;
HEADER;
FILE_DESCRIPTION (( 'STEP AP203' ),
    '1' );
FILE_NAME ('381174.step',
    '2021-12-16T07:03:48',
    ( '' ),
    ( '' ),
    'SwSTEP 2.0',
    'SolidWorks 2019',
    '' );
FILE_SCHEMA (( 'CONFIG_CONTROL_DESIGN' ));
ENDSEC;

DATA;
#1 = DIRECTION ( 'NONE',  ( 4.275831445896959482E-31, 1.000000000000000000, 1.224646799147352961E-16 ) ) ;
#2 = CONICAL_SURFACE ( 'NONE', #186, 2.400000000000000799, 0.7853981633974450594 ) ;
#3 = PERSON_AND_ORGANIZATION ( #11, #119 ) ;
#4 = DATE_AND_TIME ( #6, #63 ) ;
#5 = PERSON_AND_ORGANIZATION ( #11, #119 ) ;
#6 = CALENDAR_DATE ( 2021, 16, 12 ) ;
#7 = AXIS2_PLACEMENT_3D ( 'NONE', #109, #138, #178 ) ;
#8 = CARTESIAN_POINT ( 'NONE',  ( 0.0000000000000000000, 0.0000000000000000000, 0.0000000000000000000 ) ) ;
#9 = ADVANCED_FACE ( 'NONE', ( #139 ), #203, .F. ) ;
#10 = PLANE ( 'NONE',  #7 ) ;
#11 = PERSON ( 'UNSPECIFIED', 'UNSPECIFIED', 'UNSPECIFIED', ('UNSPECIFIED'), ('UNSPECIFIED'), ('UNSPECIFIED') ) ;
#12 = PLANE ( 'NONE',  #99 ) ;
#13 = CIRCLE ( 'NONE', #132, 7.500000000000000000 ) ;
#14 = LOCAL_TIME ( 8, 3, 48.00000000000000000, #69 ) ;
#15 = EDGE_LOOP ( 'NONE', ( #121 ) ) ;
#16 = CC_DESIGN_PERSON_AND_ORGANIZATION_ASSIGNMENT ( #117, #175, ( #35 ) ) ;
#17 = DIRECTION ( 'NONE',  ( 1.000000000000000000, 0.0000000000000000000, 0.0000000000000000000 ) ) ;
#18 = CC_DESIGN_APPROVAL ( #76, ( #155 ) ) ;
#19 = DIRECTION ( 'NONE',  ( -3.491481338843133355E-15, 1.224646799147353207E-16, -1.000000000000000000 ) ) ;
#20 = VERTEX_POINT ( 'NONE', #56 ) ;
#21 = CARTESIAN_POINT ( 'NONE',  ( 5.237222008264699244E-15, 2.999999999999991562, 1.499999999999999778 ) ) ;
#22 =( GEOMETRIC_REPRESENTATION_CONTEXT ( 3 ) GLOBAL_UNCERTAINTY_ASSIGNED_CONTEXT ( ( #95 ) ) GLOBAL_UNIT_ASSIGNED_CONTEXT ( ( #36, #113, #185 ) ) REPRESENTATION_CONTEXT ( 'NONE', 'WORKASPACE' ) );
#23 = APPROVAL_ROLE ( '' ) ;
#24 = COORDINATED_UNIVERSAL_TIME_OFFSET ( 1, 0, .AHEAD. ) ;
#25 = APPROVAL_DATE_TIME ( #144, #76 ) ;
#26 = CC_DESIGN_PERSON_AND_ORGANIZATION_ASSIGNMENT ( #5, #78, ( #155 ) ) ;
#27 = COORDINATED_UNIVERSAL_TIME_OFFSET ( 1, 0, .AHEAD. ) ;
#28 = FACE_OUTER_BOUND ( 'NONE', #84, .T. ) ;
#29 = APPROVAL_PERSON_ORGANIZATION ( #3, #76, #102 ) ;
#30 = DIRECTION ( 'NONE',  ( -3.491481338843133355E-15, 1.224646799147353207E-16, -1.000000000000000000 ) ) ;
#31 = CARTESIAN_POINT ( 'NONE',  ( 0.0000000000000000000, 0.0000000000000000000, 0.0000000000000000000 ) ) ;
#32 = APPLICATION_CONTEXT ( 'configuration controlled 3d designs of mechanical parts and assemblies' ) ;
#33 = FACE_OUTER_BOUND ( 'NONE', #86, .T. ) ;
#34 = LOCAL_TIME ( 8, 3, 48.00000000000000000, #27 ) ;
#35 = PRODUCT_DEFINITION ( 'UNKNOWN', '', #125, #124 ) ;
#36 =( LENGTH_UNIT ( ) NAMED_UNIT ( * ) SI_UNIT ( .MILLI., .METRE. ) );
#37 = CARTESIAN_POINT ( 'NONE',  ( 2.772236183041447758E-13, 2.999999999999990674, 79.39999999999999147 ) ) ;
#38 = EDGE_CURVE ( 'NONE', #20, #20, #181, .T. ) ;
#39 = COORDINATED_UNIVERSAL_TIME_OFFSET ( 1, 0, .AHEAD. ) ;
#40 = DIRECTION ( 'NONE',  ( 4.275831445896958607E-31, 1.000000000000000000, 1.224646799147353207E-16 ) ) ;
#41 = CALENDAR_DATE ( 2021, 16, 12 ) ;
#42 = PERSON_AND_ORGANIZATION_ROLE ( 'creator' ) ;
#43 = PRODUCT_DEFINITION_SHAPE ( 'NONE', 'NONE',  #35 ) ;
#44 = AXIS2_PLACEMENT_3D ( 'NONE', #8, #82, #135 ) ;
#45 = EDGE_CURVE ( 'NONE', #90, #90, #190, .T. ) ;
#46 = PRODUCT ( '381174', '381174', '', ( #188 ) ) ;
#47 = DATE_TIME_ROLE ( 'classification_date' ) ;
#48 = LOCAL_TIME ( 8, 3, 48.00000000000000000, #39 ) ;
#49 = DIRECTION ( 'NONE',  ( -3.491481338843133355E-15, 1.224646799147353207E-16, -1.000000000000000000 ) ) ;
#50 = CC_DESIGN_SECURITY_CLASSIFICATION ( #155, ( #125 ) ) ;
#51 = EDGE_LOOP ( 'NONE', ( #152 ) ) ;
#52 = CARTESIAN_POINT ( 'NONE',  ( 5.237222008264697666E-15, -1.836970198721029194E-16, 1.499999999999999334 ) ) ;
#53 = DIRECTION ( 'NONE',  ( 4.275831445896958607E-31, 1.000000000000000000, 1.224646799147352961E-16 ) ) ;
#54 = PRODUCT_RELATED_PRODUCT_CATEGORY ( 'detail', '', ( #46 ) ) ;
#55 = VERTEX_POINT ( 'NONE', #37 ) ;
#56 = CARTESIAN_POINT ( 'NONE',  ( 5.237222008264692933E-15, 7.500000000000000000, 1.499999999999998002 ) ) ;
#57 = VERTEX_POINT ( 'NONE', #89 ) ;
#58 = AXIS2_PLACEMENT_3D ( 'NONE', #93, #199, #108 ) ;
#59 = PERSON_AND_ORGANIZATION ( #11, #119 ) ;
#60 = SHAPE_DEFINITION_REPRESENTATION ( #43, #65 ) ;
#61 = ORIENTED_EDGE ( 'NONE', *, *, #38, .T. ) ;
#62 = DIRECTION ( 'NONE',  ( -3.491481338843133355E-15, 1.224646799147353207E-16, -1.000000000000000000 ) ) ;
#63 = LOCAL_TIME ( 8, 3, 48.00000000000000000, #133 ) ;
#64 = DIRECTION ( 'NONE',  ( -3.491481338843133355E-15, 1.224646799147353207E-16, -1.000000000000000000 ) ) ;
#65 = ADVANCED_BREP_SHAPE_REPRESENTATION ( '381174', ( #193, #66, #159 ), #22 ) ;
#66 = MANIFOLD_SOLID_BREP ( 'Corps-Déplacer/Copier1[2]', #77 ) ;
#67 = ADVANCED_FACE ( 'NONE', ( #107 ), #10, .F. ) ;
#68 = EDGE_LOOP ( 'NONE', ( #149 ) ) ;
#69 = COORDINATED_UNIVERSAL_TIME_OFFSET ( 1, 0, .AHEAD. ) ;
#70 = PLANE ( 'NONE',  #80 ) ;
#71 = CC_DESIGN_DATE_AND_TIME_ASSIGNMENT ( #160, #47, ( #155 ) ) ;
#72 = FACE_OUTER_BOUND ( 'NONE', #68, .T. ) ;
#73 = DIRECTION ( 'NONE',  ( -3.491481338843133355E-15, 1.224646799147353207E-16, -1.000000000000000000 ) ) ;
#74 = APPROVAL_DATE_TIME ( #4, #129 ) ;
#75 = DATE_TIME_ROLE ( 'creation_date' ) ;
#76 = APPROVAL ( #163, 'UNSPECIFIED' ) ;
#77 = CLOSED_SHELL ( 'NONE', ( #9, #100, #106 ) ) ;
#78 = PERSON_AND_ORGANIZATION_ROLE ( 'classification_officer' ) ;
#79 = CALENDAR_DATE ( 2021, 16, 12 ) ;
#80 = AXIS2_PLACEMENT_3D ( 'NONE', #171, #141, #40 ) ;
#81 = APPROVAL_PERSON_ORGANIZATION ( #118, #129, #23 ) ;
#82 = DIRECTION ( 'NONE',  ( -3.491481338843133355E-15, 1.224646799147353207E-16, -1.000000000000000000 ) ) ;
#83 = CARTESIAN_POINT ( 'NONE',  ( 2.793185071074506684E-13, -9.797174393178826052E-15, 80.00000000000000000 ) ) ;
#84 = EDGE_LOOP ( 'NONE', ( #105 ) ) ;
#85 = AXIS2_PLACEMENT_3D ( 'NONE', #31, #30, #53 ) ;
#86 = EDGE_LOOP ( 'NONE', ( #148 ) ) ;
#87 = EDGE_LOOP ( 'NONE', ( #147 ) ) ;
#88 = CARTESIAN_POINT ( 'NONE',  ( 0.0000000000000000000, 0.0000000000000000000, 0.0000000000000000000 ) ) ;
#89 = CARTESIAN_POINT ( 'NONE',  ( -7.482706512063928004E-30, 7.500000000000000000, -2.143132322896288766E-15 ) ) ;
#90 = VERTEX_POINT ( 'NONE', #187 ) ;
#91 = PERSON_AND_ORGANIZATION_ROLE ( 'design_owner' ) ;
#92 = PERSON_AND_ORGANIZATION_ROLE ( 'design_supplier' ) ;
#93 = CARTESIAN_POINT ( 'NONE',  ( -5.344790048243323874E-30, 1.874699988190282501E-31, -1.530808711128401780E-15 ) ) ;
#94 = FACE_OUTER_BOUND ( 'NONE', #51, .T. ) ;
#95 = UNCERTAINTY_MEASURE_WITH_UNIT (LENGTH_MEASURE( 1.000000000000000082E-05 ), #36, 'distance_accuracy_value', 'NONE');
#96 = CARTESIAN_POINT ( 'NONE',  ( 5.237222008264693722E-15, 5.782411586589352708E-16, 1.499999999999998224 ) ) ;
#97 = AXIS2_PLACEMENT_3D ( 'NONE', #52, #64, #183 ) ;
#98 = CARTESIAN_POINT ( 'NONE',  ( 2.793185071074506684E-13, -9.797174393178826052E-15, 80.00000000000000000 ) ) ;
#99 = AXIS2_PLACEMENT_3D ( 'NONE', #96, #49, #200 ) ;
#100 = ADVANCED_FACE ( 'NONE', ( #166, #184 ), #167, .T. ) ;
#101 = APPROVAL_PERSON_ORGANIZATION ( #111, #196, #172 ) ;
#102 = APPROVAL_ROLE ( '' ) ;
#103 = CC_DESIGN_PERSON_AND_ORGANIZATION_ASSIGNMENT ( #194, #92, ( #125 ) ) ;
#104 = EDGE_LOOP ( 'NONE', ( #61 ) ) ;
#105 = ORIENTED_EDGE ( 'NONE', *, *, #120, .F. ) ;
#106 = ADVANCED_FACE ( 'NONE', ( #94 ), #12, .F. ) ;
#107 = FACE_OUTER_BOUND ( 'NONE', #87, .T. ) ;
#108 = DIRECTION ( 'NONE',  ( -4.275831445896958607E-31, -1.000000000000000000, -1.224646799147353207E-16 ) ) ;
#109 = CARTESIAN_POINT ( 'NONE',  ( 5.237222008264697666E-15, -2.168404344971014045E-16, 1.499999999999999334 ) ) ;
#110 = CIRCLE ( 'NONE', #150, 3.000000000000000000 ) ;
#111 = PERSON_AND_ORGANIZATION ( #11, #119 ) ;
#112 = APPLICATION_CONTEXT ( 'configuration controlled 3d designs of mechanical parts and assemblies' ) ;
#113 =( NAMED_UNIT ( * ) PLANE_ANGLE_UNIT ( ) SI_UNIT ( $, .RADIAN. ) );
#114 = APPLICATION_PROTOCOL_DEFINITION ( 'international standard', 'config_control_design', 1994, #32 ) ;
#115 = CC_DESIGN_DATE_AND_TIME_ASSIGNMENT ( #126, #75, ( #35 ) ) ;
#116 = CALENDAR_DATE ( 2021, 16, 12 ) ;
#117 = PERSON_AND_ORGANIZATION ( #11, #119 ) ;
#118 = PERSON_AND_ORGANIZATION ( #11, #119 ) ;
#119 = ORGANIZATION ( 'UNSPECIFIED', 'UNSPECIFIED', '' ) ;
#120 = EDGE_CURVE ( 'NONE', #127, #127, #173, .T. ) ;
#121 = ORIENTED_EDGE ( 'NONE', *, *, #45, .T. ) ;
#122 = EDGE_LOOP ( 'NONE', ( #123 ) ) ;
#123 = ORIENTED_EDGE ( 'NONE', *, *, #45, .F. ) ;
#124 = DESIGN_CONTEXT ( 'detailed design', #32, 'design' ) ;
#125 = PRODUCT_DEFINITION_FORMATION_WITH_SPECIFIED_SOURCE ( 'ANY', '', #46, .NOT_KNOWN. ) ;
#126 = DATE_AND_TIME ( #41, #14 ) ;
#127 = VERTEX_POINT ( 'NONE', #21 ) ;
#128 = ADVANCED_FACE ( 'NONE', ( #28, #33 ), #145, .T. ) ;
#129 = APPROVAL ( #162, 'UNSPECIFIED' ) ;
#130 = DIRECTION ( 'NONE',  ( -3.491481338843133355E-15, 1.224646799147353207E-16, -1.000000000000000000 ) ) ;
#131 = DATE_AND_TIME ( #116, #48 ) ;
#132 = AXIS2_PLACEMENT_3D ( 'NONE', #197, #73, #1 ) ;
#133 = COORDINATED_UNIVERSAL_TIME_OFFSET ( 1, 0, .AHEAD. ) ;
#134 = CALENDAR_DATE ( 2021, 16, 12 ) ;
#135 = DIRECTION ( 'NONE',  ( 4.275831445896959482E-31, 1.000000000000000000, 1.224646799147353207E-16 ) ) ;
#136 = DIRECTION ( 'NONE',  ( -3.491481338843133355E-15, 1.224646799147353207E-16, -1.000000000000000000 ) ) ;
#137 = ORIENTED_EDGE ( 'NONE', *, *, #161, .T. ) ;
#138 = DIRECTION ( 'NONE',  ( 3.491481338843133355E-15, -1.224646799147353207E-16, 1.000000000000000000 ) ) ;
#139 = FACE_OUTER_BOUND ( 'NONE', #169, .T. ) ;
#140 = FACE_BOUND ( 'NONE', #15, .T. ) ;
#141 = DIRECTION ( 'NONE',  ( -3.491481338843133355E-15, 1.224646799147353207E-16, -1.000000000000000000 ) ) ;
#142 = CARTESIAN_POINT ( 'NONE',  ( 2.772236183041447758E-13, -9.723695585229984332E-15, 79.39999999999999147 ) ) ;
#143 = SECURITY_CLASSIFICATION_LEVEL ( 'unclassified' ) ;
#144 = DATE_AND_TIME ( #134, #201 ) ;
#145 = CYLINDRICAL_SURFACE ( 'NONE', #44, 2.999999999999995559 ) ;
#146 = CC_DESIGN_APPROVAL ( #129, ( #125 ) ) ;
#147 = ORIENTED_EDGE ( 'NONE', *, *, #120, .T. ) ;
#148 = ORIENTED_EDGE ( 'NONE', *, *, #198, .T. ) ;
#149 = ORIENTED_EDGE ( 'NONE', *, *, #198, .F. ) ;
#150 = AXIS2_PLACEMENT_3D ( 'NONE', #142, #19, #156 ) ;
#151 = CC_DESIGN_PERSON_AND_ORGANIZATION_ASSIGNMENT ( #59, #91, ( #46 ) ) ;
#152 = ORIENTED_EDGE ( 'NONE', *, *, #38, .F. ) ;
#153 = DIRECTION ( 'NONE',  ( 0.0000000000000000000, 0.0000000000000000000, 1.000000000000000000 ) ) ;
#154 = CLOSED_SHELL ( 'NONE', ( #67, #128, #192, #168 ) ) ;
#155 = SECURITY_CLASSIFICATION ( '', '', #143 ) ;
#156 = DIRECTION ( 'NONE',  ( 0.0000000000000000000, 1.000000000000000000, 0.0000000000000000000 ) ) ;
#157 = APPLICATION_PROTOCOL_DEFINITION ( 'international standard', 'config_control_design', 1994, #112 ) ;
#158 = DIRECTION ( 'NONE',  ( 0.0000000000000000000, 1.000000000000000000, 0.0000000000000000000 ) ) ;
#159 = AXIS2_PLACEMENT_3D ( 'NONE', #88, #153, #17 ) ;
#160 = DATE_AND_TIME ( #79, #34 ) ;
#161 = EDGE_CURVE ( 'NONE', #57, #57, #13, .T. ) ;
#162 = APPROVAL_STATUS ( 'not_yet_approved' ) ;
#163 = APPROVAL_STATUS ( 'not_yet_approved' ) ;
#164 = DIRECTION ( 'NONE',  ( 4.108650548026103445E-31, 1.000000000000000000, 1.156482317317871478E-16 ) ) ;
#165 = CARTESIAN_POINT ( 'NONE',  ( 5.237222008264690567E-15, -1.836970198721026483E-16, 1.499999999999997113 ) ) ;
#166 = FACE_OUTER_BOUND ( 'NONE', #202, .T. ) ;
#167 = CYLINDRICAL_SURFACE ( 'NONE', #85, 7.500000000000000000 ) ;
#168 = ADVANCED_FACE ( 'NONE', ( #170 ), #70, .F. ) ;
#169 = EDGE_LOOP ( 'NONE', ( #137 ) ) ;
#170 = FACE_OUTER_BOUND ( 'NONE', #122, .T. ) ;
#171 = CARTESIAN_POINT ( 'NONE',  ( 2.793185071074506684E-13, 1.799711739194214624E-32, 80.00000000000000000 ) ) ;
#172 = APPROVAL_ROLE ( '' ) ;
#173 = CIRCLE ( 'NONE', #97, 2.999999999999991562 ) ;
#174 = APPROVAL_DATE_TIME ( #131, #196 ) ;
#175 = PERSON_AND_ORGANIZATION_ROLE ( 'creator' ) ;
#176 = PERSON_AND_ORGANIZATION ( #11, #119 ) ;
#177 = AXIS2_PLACEMENT_3D ( 'NONE', #83, #62, #179 ) ;
#178 = DIRECTION ( 'NONE',  ( -4.275831445896958607E-31, -1.000000000000000000, -1.224646799147353207E-16 ) ) ;
#179 = DIRECTION ( 'NONE',  ( 0.0000000000000000000, 1.000000000000000000, 0.0000000000000000000 ) ) ;
#180 = ORIENTED_EDGE ( 'NONE', *, *, #161, .F. ) ;
#181 = CIRCLE ( 'NONE', #195, 7.500000000000000000 ) ;
#182 = CC_DESIGN_PERSON_AND_ORGANIZATION_ASSIGNMENT ( #176, #42, ( #125 ) ) ;
#183 = DIRECTION ( 'NONE',  ( 5.135813185032643538E-31, 1.000000000000000000, 1.445602896647343354E-16 ) ) ;
#184 = FACE_OUTER_BOUND ( 'NONE', #104, .T. ) ;
#185 =( NAMED_UNIT ( * ) SI_UNIT ( $, .STERADIAN. ) SOLID_ANGLE_UNIT ( ) );
#186 = AXIS2_PLACEMENT_3D ( 'NONE', #98, #130, #158 ) ;
#187 = CARTESIAN_POINT ( 'NONE',  ( 2.793185071074506684E-13, 2.399999999999990585, 80.00000000000000000 ) ) ;
#188 = MECHANICAL_CONTEXT ( 'NONE', #112, 'mechanical' ) ;
#189 = APPROVAL_STATUS ( 'not_yet_approved' ) ;
#190 = CIRCLE ( 'NONE', #177, 2.400000000000000799 ) ;
#191 = CC_DESIGN_APPROVAL ( #196, ( #35 ) ) ;
#192 = ADVANCED_FACE ( 'NONE', ( #72, #140 ), #2, .T. ) ;
#193 = MANIFOLD_SOLID_BREP ( 'Corps-Déplacer/Copier1[1]', #154 ) ;
#194 = PERSON_AND_ORGANIZATION ( #11, #119 ) ;
#195 = AXIS2_PLACEMENT_3D ( 'NONE', #165, #136, #164 ) ;
#196 = APPROVAL ( #189, 'UNSPECIFIED' ) ;
#197 = CARTESIAN_POINT ( 'NONE',  ( -1.068958009648664775E-29, 3.749399976380565003E-31, -3.061617422256803561E-15 ) ) ;
#198 = EDGE_CURVE ( 'NONE', #55, #55, #110, .T. ) ;
#199 = DIRECTION ( 'NONE',  ( 3.491481338843133355E-15, -1.224646799147353207E-16, 1.000000000000000000 ) ) ;
#200 = DIRECTION ( 'NONE',  ( 4.275831445896958607E-31, 1.000000000000000000, 1.224646799147353207E-16 ) ) ;
#201 = LOCAL_TIME ( 8, 3, 48.00000000000000000, #24 ) ;
#202 = EDGE_LOOP ( 'NONE', ( #180 ) ) ;
#203 = PLANE ( 'NONE',  #58 ) ;
ENDSEC;
END-ISO-10303-21;
