ISO-10303-21;
HEADER;
FILE_DESCRIPTION (( 'STEP AP203' ),
    '1' );
FILE_NAME ('38103.step',
    '2021-10-07T13:47:44',
    ( '' ),
    ( '' ),
    'SwSTEP 2.0',
    'SolidWorks 2019',
    '' );
FILE_SCHEMA (( 'CONFIG_CONTROL_DESIGN' ));
ENDSEC;

DATA;
#1 = CLOSED_SHELL ( 'NONE', ( #5, #190, #97, #149, #218 ) ) ;
#2 = ORIENTED_EDGE ( 'NONE', *, *, #75, .F. ) ;
#3 = DIRECTION ( 'NONE',  ( 4.275831445896958607E-31, 1.000000000000000000, 1.224646799147353207E-16 ) ) ;
#4 = CARTESIAN_POINT ( 'NONE',  ( 0.0000000000000000000, 0.0000000000000000000, 0.0000000000000000000 ) ) ;
#5 = ADVANCED_FACE ( 'NONE', ( #215 ), #223, .F. ) ;
#6 = ADVANCED_FACE ( 'NONE', ( #85 ), #222, .T. ) ;
#7 = CARTESIAN_POINT ( 'NONE',  ( 1.844804703234478749E-14, -6.470703852069452444E-16, 5.283730669589475681 ) ) ;
#8 = FACE_BOUND ( 'NONE', #51, .T. ) ;
#9 = COORDINATED_UNIVERSAL_TIME_OFFSET ( 1, 0, .AHEAD. ) ;
#10 = DIRECTION ( 'NONE',  ( 4.275831445896957731E-31, 1.000000000000000000, 1.224646799147352961E-16 ) ) ;
#11 = DATE_AND_TIME ( #42, #194 ) ;
#12 = CARTESIAN_POINT ( 'NONE',  ( 1.571166602479410010E-14, 2.174651684859671089E-33, 4.500000000000000000 ) ) ;
#13 = CALENDAR_DATE ( 2021, 7, 10 ) ;
#14 = CC_DESIGN_APPROVAL ( #139, ( #122 ) ) ;
#15 = DATE_AND_TIME ( #13, #19 ) ;
#16 = CARTESIAN_POINT ( 'NONE',  ( 6.083891551883361687E-16, -2.133941898094826402E-17, 0.1742495795179932749 ) ) ;
#17 = DIRECTION ( 'NONE',  ( 0.0000000000000000000, 1.000000000000000000, 0.0000000000000000000 ) ) ;
#18 = DIRECTION ( 'NONE',  ( -3.491481338843133355E-15, 1.224646799147353207E-16, -1.000000000000000000 ) ) ;
#19 = LOCAL_TIME ( 15, 47, 44.00000000000000000, #9 ) ;
#20 = EDGE_LOOP ( 'NONE', ( #170 ) ) ;
#21 = FACE_OUTER_BOUND ( 'NONE', #20, .T. ) ;
#22 = AXIS2_PLACEMENT_3D ( 'NONE', #185, #169, #150 ) ;
#23 = DIRECTION ( 'NONE',  ( 1.000000000000000000, 0.0000000000000000000, 0.0000000000000000000 ) ) ;
#24 = FACE_BOUND ( 'NONE', #125, .T. ) ;
#25 = PERSON_AND_ORGANIZATION ( #82, #29 ) ;
#26 = CALENDAR_DATE ( 2021, 7, 10 ) ;
#27 = APPROVAL_STATUS ( 'not_yet_approved' ) ;
#28 = CC_DESIGN_DATE_AND_TIME_ASSIGNMENT ( #15, #164, ( #122 ) ) ;
#29 = ORGANIZATION ( 'UNSPECIFIED', 'UNSPECIFIED', '' ) ;
#30 = CARTESIAN_POINT ( 'NONE',  ( 1.844804703234478749E-14, -6.470703852069452444E-16, 5.283730669589475681 ) ) ;
#31 = LOCAL_TIME ( 15, 47, 44.00000000000000000, #77 ) ;
#32 = APPROVAL_STATUS ( 'not_yet_approved' ) ;
#33 = DIRECTION ( 'NONE',  ( 3.320568869633187657E-31, 1.000000000000000000, 9.346570452461308153E-17 ) ) ;
#34 = CIRCLE ( 'NONE', #162, 0.4999999999999954481 ) ;
#35 = PRODUCT_DEFINITION_SHAPE ( 'NONE', 'NONE',  #122 ) ;
#36 = PERSON_AND_ORGANIZATION ( #82, #29 ) ;
#37 = MECHANICAL_CONTEXT ( 'NONE', #154, 'mechanical' ) ;
#38 = AXIS2_PLACEMENT_3D ( 'NONE', #55, #189, #23 ) ;
#39 = ORIENTED_EDGE ( 'NONE', *, *, #40, .F. ) ;
#40 = EDGE_CURVE ( 'NONE', #161, #161, #73, .T. ) ;
#41 = FACE_OUTER_BOUND ( 'NONE', #111, .T. ) ;
#42 = CALENDAR_DATE ( 2021, 7, 10 ) ;
#43 = DATE_TIME_ROLE ( 'classification_date' ) ;
#44 = FACE_OUTER_BOUND ( 'NONE', #68, .T. ) ;
#45 = DIRECTION ( 'NONE',  ( -3.491481338843133355E-15, 1.224646799147353207E-16, -1.000000000000000000 ) ) ;
#46 = AXIS2_PLACEMENT_3D ( 'NONE', #166, #45, #120 ) ;
#47 = CC_DESIGN_PERSON_AND_ORGANIZATION_ASSIGNMENT ( #36, #98, ( #124 ) ) ;
#48 = EDGE_LOOP ( 'NONE', ( #49 ) ) ;
#49 = ORIENTED_EDGE ( 'NONE', *, *, #40, .T. ) ;
#50 = APPROVAL ( #27, 'UNSPECIFIED' ) ;
#51 = EDGE_LOOP ( 'NONE', ( #94 ) ) ;
#52 = FACE_OUTER_BOUND ( 'NONE', #48, .T. ) ;
#53 = AXIS2_PLACEMENT_3D ( 'NONE', #159, #59, #10 ) ;
#54 = LOCAL_TIME ( 15, 47, 44.00000000000000000, #63 ) ;
#55 = CARTESIAN_POINT ( 'NONE',  ( 0.0000000000000000000, 0.0000000000000000000, 0.0000000000000000000 ) ) ;
#56 = CARTESIAN_POINT ( 'NONE',  ( 1.047444401652940007E-13, 2.999519565323649872E-33, 30.00000000000000000 ) ) ;
#57 = EDGE_CURVE ( 'NONE', #171, #171, #216, .T. ) ;
#58 = FACE_OUTER_BOUND ( 'NONE', #201, .T. ) ;
#59 = DIRECTION ( 'NONE',  ( -3.491481338843133355E-15, 1.224646799147353207E-16, -1.000000000000000000 ) ) ;
#60 = CARTESIAN_POINT ( 'NONE',  ( 1.043952920314096810E-13, 0.4999999999999947820, 29.89999999999999858 ) ) ;
#61 = CARTESIAN_POINT ( 'NONE',  ( 1.047444401652940007E-13, 0.3999999999999949707, 30.00000000000000000 ) ) ;
#62 = DIRECTION ( 'NONE',  ( -3.491481338843133355E-15, 1.224646799147353207E-16, -1.000000000000000000 ) ) ;
#63 = COORDINATED_UNIVERSAL_TIME_OFFSET ( 1, 0, .AHEAD. ) ;
#64 = AXIS2_PLACEMENT_3D ( 'NONE', #92, #128, #142 ) ;
#65 = PERSON_AND_ORGANIZATION ( #82, #29 ) ;
#66 = PERSON_AND_ORGANIZATION ( #82, #29 ) ;
#67 = DESIGN_CONTEXT ( 'detailed design', #187, 'design' ) ;
#68 = EDGE_LOOP ( 'NONE', ( #39 ) ) ;
#69 = AXIS2_PLACEMENT_3D ( 'NONE', #12, #118, #193 ) ;
#70 = EDGE_CURVE ( 'NONE', #114, #114, #188, .T. ) ;
#71 = DIRECTION ( 'NONE',  ( 0.0000000000000000000, 1.000000000000000000, 0.0000000000000000000 ) ) ;
#72 = DIRECTION ( 'NONE',  ( -3.491481338843133355E-15, 1.224646799147353207E-16, -1.000000000000000000 ) ) ;
#73 = CIRCLE ( 'NONE', #46, 0.2899999999999981481 ) ;
#74 =( LENGTH_UNIT ( ) NAMED_UNIT ( * ) SI_UNIT ( .MILLI., .METRE. ) );
#75 = EDGE_CURVE ( 'NONE', #173, #173, #34, .T. ) ;
#76 = PLANE ( 'NONE',  #89 ) ;
#77 = COORDINATED_UNIVERSAL_TIME_OFFSET ( 1, 0, .AHEAD. ) ;
#78 = DIRECTION ( 'NONE',  ( 0.0000000000000000000, -1.000000000000000000, 0.0000000000000000000 ) ) ;
#79 = UNCERTAINTY_MEASURE_WITH_UNIT (LENGTH_MEASURE( 1.000000000000000082E-05 ), #74, 'distance_accuracy_value', 'NONE');
#80 = APPROVAL_PERSON_ORGANIZATION ( #65, #84, #119 ) ;
#81 = CARTESIAN_POINT ( 'NONE',  ( 1.047444401652940007E-13, -3.673940397442059178E-15, 30.00000000000000000 ) ) ;
#82 = PERSON ( 'UNSPECIFIED', 'UNSPECIFIED', 'UNSPECIFIED', ('UNSPECIFIED'), ('UNSPECIFIED'), ('UNSPECIFIED') ) ;
#83 = PERSON_AND_ORGANIZATION_ROLE ( 'creator' ) ;
#84 = APPROVAL ( #32, 'UNSPECIFIED' ) ;
#85 = FACE_OUTER_BOUND ( 'NONE', #221, .T. ) ;
#86 = PERSON_AND_ORGANIZATION ( #82, #29 ) ;
#87 = CALENDAR_DATE ( 2021, 7, 10 ) ;
#88 = DIRECTION ( 'NONE',  ( -3.491481338843133355E-15, 1.224646799147353207E-16, -1.000000000000000000 ) ) ;
#89 = AXIS2_PLACEMENT_3D ( 'NONE', #56, #72, #213 ) ;
#90 = DIRECTION ( 'NONE',  ( -4.275831445896958607E-31, -1.000000000000000000, -1.224646799147353207E-16 ) ) ;
#91 = ADVANCED_FACE ( 'NONE', ( #44 ), #121, .T. ) ;
#92 = CARTESIAN_POINT ( 'NONE',  ( 1.571166602479410010E-14, -5.510910596163088569E-16, 4.500000000000000000 ) ) ;
#93 = CC_DESIGN_APPROVAL ( #84, ( #182 ) ) ;
#94 = ORIENTED_EDGE ( 'NONE', *, *, #175, .F. ) ;
#95 =( NAMED_UNIT ( * ) SI_UNIT ( $, .STERADIAN. ) SOLID_ANGLE_UNIT ( ) );
#96 = APPROVAL_STATUS ( 'not_yet_approved' ) ;
#97 = ADVANCED_FACE ( 'NONE', ( #41, #58 ), #141, .T. ) ;
#98 = PERSON_AND_ORGANIZATION_ROLE ( 'design_owner' ) ;
#99 = CARTESIAN_POINT ( 'NONE',  ( 6.083891551883361687E-16, -2.133941898094826402E-17, 0.1742495795179932749 ) ) ;
#100 = CC_DESIGN_PERSON_AND_ORGANIZATION_ASSIGNMENT ( #25, #102, ( #122 ) ) ;
#101 = APPLICATION_PROTOCOL_DEFINITION ( 'international standard', 'config_control_design', 1994, #154 ) ;
#102 = PERSON_AND_ORGANIZATION_ROLE ( 'creator' ) ;
#103 = CIRCLE ( 'NONE', #64, 0.2899999999999981481 ) ;
#104 = SECURITY_CLASSIFICATION_LEVEL ( 'unclassified' ) ;
#105 = SHAPE_DEFINITION_REPRESENTATION ( #35, #134 ) ;
#106 = CONICAL_SURFACE ( 'NONE', #207, 0.4999999999999954481, 0.2617993877991425800 ) ;
#107 = DIRECTION ( 'NONE',  ( 3.491481338843133355E-15, -1.224646799147353207E-16, 1.000000000000000000 ) ) ;
#108 = AXIS2_PLACEMENT_3D ( 'NONE', #81, #62, #168 ) ;
#109 = AXIS2_PLACEMENT_3D ( 'NONE', #16, #209, #206 ) ;
#110 = VERTEX_POINT ( 'NONE', #60 ) ;
#111 = EDGE_LOOP ( 'NONE', ( #2 ) ) ;
#112 = DIRECTION ( 'NONE',  ( -3.491481338843133355E-15, 1.224646799147353207E-16, -1.000000000000000000 ) ) ;
#113 = CARTESIAN_POINT ( 'NONE',  ( 6.083891551883362673E-16, 0.2899999999999980371, 0.1742495795179933027 ) ) ;
#114 = VERTEX_POINT ( 'NONE', #113 ) ;
#115 = DATE_AND_TIME ( #192, #31 ) ;
#116 = PERSON_AND_ORGANIZATION ( #82, #29 ) ;
#117 = EDGE_CURVE ( 'NONE', #110, #110, #152, .T. ) ;
#118 = DIRECTION ( 'NONE',  ( 3.491481338843133355E-15, -1.224646799147353207E-16, 1.000000000000000000 ) ) ;
#119 = APPROVAL_ROLE ( '' ) ;
#120 = DIRECTION ( 'NONE',  ( 0.0000000000000000000, 1.000000000000000000, 0.0000000000000000000 ) ) ;
#121 = PLANE ( 'NONE',  #69 ) ;
#122 = PRODUCT_DEFINITION ( 'UNKNOWN', '', #180, #67 ) ;
#123 = LOCAL_TIME ( 15, 47, 44.00000000000000000, #217 ) ;
#124 = PRODUCT ( '38103', '38103', '', ( #37 ) ) ;
#125 = EDGE_LOOP ( 'NONE', ( #172 ) ) ;
#126 = VERTEX_POINT ( 'NONE', #131 ) ;
#127 = DIRECTION ( 'NONE',  ( 3.491481338843133355E-15, -1.224646799147353207E-16, 1.000000000000000000 ) ) ;
#128 = DIRECTION ( 'NONE',  ( -3.491481338843133355E-15, 1.224646799147353207E-16, -1.000000000000000000 ) ) ;
#129 = FACE_OUTER_BOUND ( 'NONE', #186, .T. ) ;
#130 = CONICAL_SURFACE ( 'NONE', #108, 0.3999999999999986899, 0.7853981633974504994 ) ;
#131 = CARTESIAN_POINT ( 'NONE',  ( 1.571166602479410010E-14, 0.2899999999999975930, 4.500000000000000000 ) ) ;
#132 = ORIENTED_EDGE ( 'NONE', *, *, #75, .T. ) ;
#133 = CARTESIAN_POINT ( 'NONE',  ( 1.571166602479410010E-14, 0.2899999999999975930, 4.500000000000000000 ) ) ;
#134 = ADVANCED_BREP_SHAPE_REPRESENTATION ( '38103', ( #200, #197, #38 ), #203 ) ;
#135 = ORIENTED_EDGE ( 'NONE', *, *, #57, .F. ) ;
#136 = COORDINATED_UNIVERSAL_TIME_OFFSET ( 1, 0, .AHEAD. ) ;
#137 = DATE_AND_TIME ( #87, #54 ) ;
#138 = APPROVAL_PERSON_ORGANIZATION ( #195, #50, #144 ) ;
#139 = APPROVAL ( #96, 'UNSPECIFIED' ) ;
#140 = CC_DESIGN_APPROVAL ( #50, ( #180 ) ) ;
#141 = CYLINDRICAL_SURFACE ( 'NONE', #53, 0.4999999999999970024 ) ;
#142 = DIRECTION ( 'NONE',  ( 0.0000000000000000000, 1.000000000000000000, 0.0000000000000000000 ) ) ;
#143 = CYLINDRICAL_SURFACE ( 'NONE', #176, 0.2899999999999980926 ) ;
#144 = APPROVAL_ROLE ( '' ) ;
#145 = PERSON_AND_ORGANIZATION_ROLE ( 'classification_officer' ) ;
#146 = AXIS2_PLACEMENT_3D ( 'NONE', #99, #158, #33 ) ;
#147 = CC_DESIGN_DATE_AND_TIME_ASSIGNMENT ( #220, #43, ( #182 ) ) ;
#148 = CARTESIAN_POINT ( 'NONE',  ( 1.571166602479410010E-14, 2.174651684859671089E-33, 4.500000000000000000 ) ) ;
#149 = ADVANCED_FACE ( 'NONE', ( #219, #24 ), #130, .T. ) ;
#150 = DIRECTION ( 'NONE',  ( 0.0000000000000000000, 1.000000000000000000, 0.0000000000000000000 ) ) ;
#151 = CC_DESIGN_PERSON_AND_ORGANIZATION_ASSIGNMENT ( #116, #83, ( #180 ) ) ;
#152 = CIRCLE ( 'NONE', #22, 0.4999999999999985012 ) ;
#153 = EDGE_LOOP ( 'NONE', ( #198 ) ) ;
#154 = APPLICATION_CONTEXT ( 'configuration controlled 3d designs of mechanical parts and assemblies' ) ;
#155 = ORIENTED_EDGE ( 'NONE', *, *, #70, .T. ) ;
#156 = FACE_OUTER_BOUND ( 'NONE', #205, .T. ) ;
#157 = APPLICATION_PROTOCOL_DEFINITION ( 'international standard', 'config_control_design', 1994, #187 ) ;
#158 = DIRECTION ( 'NONE',  ( -3.491481338843133355E-15, 1.224646799147353207E-16, -1.000000000000000000 ) ) ;
#159 = CARTESIAN_POINT ( 'NONE',  ( 0.0000000000000000000, 0.0000000000000000000, 0.0000000000000000000 ) ) ;
#160 = PERSON_AND_ORGANIZATION ( #82, #29 ) ;
#161 = VERTEX_POINT ( 'NONE', #133 ) ;
#162 = AXIS2_PLACEMENT_3D ( 'NONE', #30, #18, #17 ) ;
#163 = ORIENTED_EDGE ( 'NONE', *, *, #117, .T. ) ;
#164 = DATE_TIME_ROLE ( 'creation_date' ) ;
#165 = ORIENTED_EDGE ( 'NONE', *, *, #117, .F. ) ;
#166 = CARTESIAN_POINT ( 'NONE',  ( 1.571166602479410010E-14, -5.510910596163088569E-16, 4.500000000000000000 ) ) ;
#167 = CARTESIAN_POINT ( 'NONE',  ( 1.047444401652940007E-13, -3.673940397442059178E-15, 30.00000000000000000 ) ) ;
#168 = DIRECTION ( 'NONE',  ( 0.0000000000000000000, 1.000000000000000000, 0.0000000000000000000 ) ) ;
#169 = DIRECTION ( 'NONE',  ( -3.491481338843133355E-15, 1.224646799147353207E-16, -1.000000000000000000 ) ) ;
#170 = ORIENTED_EDGE ( 'NONE', *, *, #70, .F. ) ;
#171 = VERTEX_POINT ( 'NONE', #61 ) ;
#172 = ORIENTED_EDGE ( 'NONE', *, *, #57, .T. ) ;
#173 = VERTEX_POINT ( 'NONE', #174 ) ;
#174 = CARTESIAN_POINT ( 'NONE',  ( 1.844804703234478749E-14, 0.4999999999999947820, 5.283730669589475681 ) ) ;
#175 = EDGE_CURVE ( 'NONE', #126, #126, #103, .T. ) ;
#176 = AXIS2_PLACEMENT_3D ( 'NONE', #4, #112, #3 ) ;
#177 = PRODUCT_RELATED_PRODUCT_CATEGORY ( 'detail', '', ( #124 ) ) ;
#178 = APPROVAL_DATE_TIME ( #115, #139 ) ;
#179 = CLOSED_SHELL ( 'NONE', ( #6, #202, #91 ) ) ;
#180 = PRODUCT_DEFINITION_FORMATION_WITH_SPECIFIED_SOURCE ( 'ANY', '', #124, .NOT_KNOWN. ) ;
#181 = PERSON_AND_ORGANIZATION_ROLE ( 'design_supplier' ) ;
#182 = SECURITY_CLASSIFICATION ( '', '', #104 ) ;
#183 = CC_DESIGN_PERSON_AND_ORGANIZATION_ASSIGNMENT ( #66, #181, ( #180 ) ) ;
#184 = EDGE_LOOP ( 'NONE', ( #165 ) ) ;
#185 = CARTESIAN_POINT ( 'NONE',  ( 1.043952920314096810E-13, -3.661693929450586610E-15, 29.89999999999999858 ) ) ;
#186 = EDGE_LOOP ( 'NONE', ( #135 ) ) ;
#187 = APPLICATION_CONTEXT ( 'configuration controlled 3d designs of mechanical parts and assemblies' ) ;
#188 = CIRCLE ( 'NONE', #146, 0.2899999999999980371 ) ;
#189 = DIRECTION ( 'NONE',  ( 0.0000000000000000000, 0.0000000000000000000, 1.000000000000000000 ) ) ;
#190 = ADVANCED_FACE ( 'NONE', ( #8, #156 ), #106, .T. ) ;
#191 = CC_DESIGN_SECURITY_CLASSIFICATION ( #182, ( #180 ) ) ;
#192 = CALENDAR_DATE ( 2021, 7, 10 ) ;
#193 = DIRECTION ( 'NONE',  ( -4.275831445896958607E-31, -1.000000000000000000, -1.224646799147353207E-16 ) ) ;
#194 = LOCAL_TIME ( 15, 47, 44.00000000000000000, #136 ) ;
#195 = PERSON_AND_ORGANIZATION ( #82, #29 ) ;
#196 = APPROVAL_DATE_TIME ( #137, #84 ) ;
#197 = MANIFOLD_SOLID_BREP ( 'Corps-Déplacer/Copier1[2]', #179 ) ;
#198 = ORIENTED_EDGE ( 'NONE', *, *, #175, .T. ) ;
#199 = AXIS2_PLACEMENT_3D ( 'NONE', #167, #88, #71 ) ;
#200 = MANIFOLD_SOLID_BREP ( 'Corps-Déplacer/Copier1[1]', #1 ) ;
#201 = EDGE_LOOP ( 'NONE', ( #163 ) ) ;
#202 = ADVANCED_FACE ( 'NONE', ( #21, #52 ), #143, .T. ) ;
#203 =( GEOMETRIC_REPRESENTATION_CONTEXT ( 3 ) GLOBAL_UNCERTAINTY_ASSIGNED_CONTEXT ( ( #79 ) ) GLOBAL_UNIT_ASSIGNED_CONTEXT ( ( #74, #208, #95 ) ) REPRESENTATION_CONTEXT ( 'NONE', 'WORKASPACE' ) );
#204 = APPROVAL_PERSON_ORGANIZATION ( #160, #139, #211 ) ;
#205 = EDGE_LOOP ( 'NONE', ( #132 ) ) ;
#206 = DIRECTION ( 'NONE',  ( -3.320568869633187657E-31, -1.000000000000000000, -9.346570452461308153E-17 ) ) ;
#207 = AXIS2_PLACEMENT_3D ( 'NONE', #7, #127, #78 ) ;
#208 =( NAMED_UNIT ( * ) PLANE_ANGLE_UNIT ( ) SI_UNIT ( $, .RADIAN. ) );
#209 = DIRECTION ( 'NONE',  ( 3.491481338843133355E-15, -1.224646799147353207E-16, 1.000000000000000000 ) ) ;
#210 = CC_DESIGN_PERSON_AND_ORGANIZATION_ASSIGNMENT ( #86, #145, ( #182 ) ) ;
#211 = APPROVAL_ROLE ( '' ) ;
#212 = AXIS2_PLACEMENT_3D ( 'NONE', #148, #107, #90 ) ;
#213 = DIRECTION ( 'NONE',  ( 4.275831445896958607E-31, 1.000000000000000000, 1.224646799147353207E-16 ) ) ;
#214 = APPROVAL_DATE_TIME ( #11, #50 ) ;
#215 = FACE_OUTER_BOUND ( 'NONE', #153, .T. ) ;
#216 = CIRCLE ( 'NONE', #199, 0.3999999999999986899 ) ;
#217 = COORDINATED_UNIVERSAL_TIME_OFFSET ( 1, 0, .AHEAD. ) ;
#218 = ADVANCED_FACE ( 'NONE', ( #129 ), #76, .F. ) ;
#219 = FACE_OUTER_BOUND ( 'NONE', #184, .T. ) ;
#220 = DATE_AND_TIME ( #26, #123 ) ;
#221 = EDGE_LOOP ( 'NONE', ( #155 ) ) ;
#222 = CONICAL_SURFACE ( 'NONE', #109, 0.2899999999999980371, 1.029744258676649649 ) ;
#223 = PLANE ( 'NONE',  #212 ) ;
ENDSEC;
END-ISO-10303-21;
