ISO-10303-21;
HEADER;
FILE_DESCRIPTION (( 'STEP AP203' ),
    '1' );
FILE_NAME ('381025.step',
    '2023-03-31T07:09:11',
    ( '' ),
    ( '' ),
    'SwSTEP 2.0',
    'SolidWorks 2022',
    '' );
FILE_SCHEMA (( 'CONFIG_CONTROL_DESIGN' ));
ENDSEC;

DATA;
#1 = DIRECTION ( 'NONE',  ( 3.491481338843133355E-15, -1.224646799147353207E-16, 1.000000000000000000 ) ) ;
#2 = CARTESIAN_POINT ( 'NONE',  ( 1.745740669421565731E-14, -1.999999999999995781, 4.999999999999997335 ) ) ;
#3 = DIRECTION ( 'NONE',  ( -3.491481338843133355E-15, 1.224646799147353207E-16, -1.000000000000000000 ) ) ;
#4 = CIRCLE ( 'NONE', #219, 2.399999999999994138 ) ;
#5 = CIRCLE ( 'NONE', #270, 2.999999999999991562 ) ;
#6 =( NAMED_UNIT ( * ) PLANE_ANGLE_UNIT ( ) SI_UNIT ( $, .RADIAN. ) );
#7 = PERSON_AND_ORGANIZATION_ROLE ( 'design_owner' ) ;
#8 = AXIS2_PLACEMENT_3D ( 'NONE', #307, #116, #169 ) ;
#9 = PERSON_AND_ORGANIZATION ( #38, #181 ) ;
#10 = EDGE_CURVE ( 'NONE', #115, #342, #136, .T. ) ;
#11 = CALENDAR_DATE ( 2023, 31, 3 ) ;
#12 = VERTEX_POINT ( 'NONE', #2 ) ;
#13 = AXIS2_PLACEMENT_3D ( 'NONE', #223, #190, #73 ) ;
#14 = ORIENTED_EDGE ( 'NONE', *, *, #144, .T. ) ;
#15 = FACE_OUTER_BOUND ( 'NONE', #98, .T. ) ;
#16 = APPROVAL_PERSON_ORGANIZATION ( #47, #172, #182 ) ;
#17 = DIRECTION ( 'NONE',  ( 4.275831445896958607E-31, 1.000000000000000000, 1.224646799147353207E-16 ) ) ;
#18 = EDGE_LOOP ( 'NONE', ( #221, #59, #201, #351 ) ) ;
#19 = LINE ( 'NONE', #138, #206 ) ;
#20 = CC_DESIGN_PERSON_AND_ORGANIZATION_ASSIGNMENT ( #185, #94, ( #34 ) ) ;
#21 = CARTESIAN_POINT ( 'NONE',  ( 1.724791781388507751E-13, 2.999999999999988010, 49.39999999999999147 ) ) ;
#22 = APPROVAL_PERSON_ORGANIZATION ( #41, #347, #92 ) ;
#23 = DIRECTION ( 'NONE',  ( -3.491481338843133355E-15, 1.276467311168695266E-16, -1.000000000000000000 ) ) ;
#24 = EDGE_LOOP ( 'NONE', ( #72, #280, #88, #84 ) ) ;
#25 = EDGE_CURVE ( 'NONE', #101, #107, #57, .T. ) ;
#26 = CARTESIAN_POINT ( 'NONE',  ( 1.282749433769083904E-30, 2.999999999999991562, 3.673940397442049021E-16 ) ) ;
#27 = DIRECTION ( 'NONE',  ( -3.491481338843133355E-15, 1.276467311168695266E-16, -1.000000000000000000 ) ) ;
#28 = AXIS2_PLACEMENT_3D ( 'NONE', #222, #158, #352 ) ;
#29 = LOCAL_TIME ( 9, 9, 11.00000000000000000, #40 ) ;
#30 = LINE ( 'NONE', #26, #266 ) ;
#31 = ORIENTED_EDGE ( 'NONE', *, *, #312, .T. ) ;
#32 = DIRECTION ( 'NONE',  ( 3.491481338843133355E-15, -1.276467311168695266E-16, 1.000000000000000000 ) ) ;
#33 = DIRECTION ( 'NONE',  ( 0.000000000000000000, 1.000000000000000000, 0.000000000000000000 ) ) ;
#34 = SECURITY_CLASSIFICATION ( '', '', #69 ) ;
#35 = COORDINATED_UNIVERSAL_TIME_OFFSET ( 1, 0, .AHEAD. ) ;
#36 = APPLICATION_CONTEXT ( 'configuration controlled 3d designs of mechanical parts and assemblies' ) ;
#37 = ADVANCED_FACE ( 'NONE', ( #110 ), #255, .T. ) ;
#38 = PERSON ( 'UNSPECIFIED', 'UNSPECIFIED', 'UNSPECIFIED', ('UNSPECIFIED'), ('UNSPECIFIED'), ('UNSPECIFIED') ) ;
#39 = ADVANCED_FACE ( 'NONE', ( #117 ), #228, .T. ) ;
#40 = COORDINATED_UNIVERSAL_TIME_OFFSET ( 1, 0, .AHEAD. ) ;
#41 = PERSON_AND_ORGANIZATION ( #38, #181 ) ;
#42 = DESIGN_CONTEXT ( 'detailed design', #164, 'design' ) ;
#43 = ORIENTED_EDGE ( 'NONE', *, *, #328, .T. ) ;
#44 = CARTESIAN_POINT ( 'NONE',  ( 1.745740669421566678E-13, -6.123233995736766085E-15, 50.00000000000000000 ) ) ;
#45 = PLANE ( 'NONE',  #99 ) ;
#46 = CIRCLE ( 'NONE', #336, 1.999999999999995337 ) ;
#47 = PERSON_AND_ORGANIZATION ( #38, #181 ) ;
#48 = DIRECTION ( 'NONE',  ( 3.491481338843133355E-15, -1.276467311168695266E-16, 1.000000000000000000 ) ) ;
#49 = CC_DESIGN_PERSON_AND_ORGANIZATION_ASSIGNMENT ( #300, #218, ( #95 ) ) ;
#50 = EDGE_CURVE ( 'NONE', #342, #115, #5, .T. ) ;
#51 = CARTESIAN_POINT ( 'NONE',  ( 8.260933544542134939E-14, -6.999999999999997335, 23.66025403784432513 ) ) ;
#52 = CONICAL_SURFACE ( 'NONE', #220, 2.399999999999994138, 0.7853981633974396193 ) ;
#53 = DIRECTION ( 'NONE',  ( 0.000000000000000000, 1.000000000000000000, 0.000000000000000000 ) ) ;
#54 = EDGE_LOOP ( 'NONE', ( #188, #287 ) ) ;
#55 = ORIENTED_EDGE ( 'NONE', *, *, #239, .F. ) ;
#56 = LINE ( 'NONE', #261, #359 ) ;
#57 = LINE ( 'NONE', #258, #241 ) ;
#58 = CARTESIAN_POINT ( 'NONE',  ( 1.745740669421565731E-14, -6.382336555843472876E-16, 4.999999999999997335 ) ) ;
#59 = ORIENTED_EDGE ( 'NONE', *, *, #230, .T. ) ;
#60 = PRODUCT ( '381025', '381025', '', ( #96 ) ) ;
#61 = DIRECTION ( 'NONE',  ( -2.468850131082286643E-15, 0.7071067811865414665, -0.7071067811865536790 ) ) ;
#62 = EDGE_CURVE ( 'NONE', #113, #101, #4, .T. ) ;
#63 = DIRECTION ( 'NONE',  ( -4.275831445896958607E-31, -1.000000000000000000, -1.224646799147353207E-16 ) ) ;
#64 = CIRCLE ( 'NONE', #213, 2.399999999999994138 ) ;
#65 = DATE_TIME_ROLE ( 'creation_date' ) ;
#66 = CIRCLE ( 'NONE', #215, 2.999999999999993783 ) ;
#67 = ADVANCED_FACE ( 'NONE', ( #102 ), #128, .T. ) ;
#68 = CALENDAR_DATE ( 2023, 31, 3 ) ;
#69 = SECURITY_CLASSIFICATION_LEVEL ( 'unclassified' ) ;
#70 = CLOSED_SHELL ( 'NONE', ( #184, #274, #103, #91 ) ) ;
#71 = LOCAL_TIME ( 9, 9, 11.00000000000000000, #153 ) ;
#72 = ORIENTED_EDGE ( 'NONE', *, *, #217, .F. ) ;
#73 = DIRECTION ( 'NONE',  ( 0.000000000000000000, 1.000000000000000000, 0.000000000000000000 ) ) ;
#74 = CARTESIAN_POINT ( 'NONE',  ( 1.018508793313978180E-13, -3.000000000000000000, 49.39999999999999147 ) ) ;
#75 = DATE_AND_TIME ( #97, #346 ) ;
#76 = VECTOR ( 'NONE', #304, 1000.000000000000114 ) ;
#77 = CARTESIAN_POINT ( 'NONE',  ( -6.413839710158237013E-31, 0.000000000000000000, -1.836996703606440502E-16 ) ) ;
#78 = EDGE_CURVE ( 'NONE', #233, #202, #19, .T. ) ;
#79 = CARTESIAN_POINT ( 'NONE',  ( 1.014834852916538018E-13, 2.999999999999990230, 8.732050807568842998 ) ) ;
#80 = DIRECTION ( 'NONE',  ( -4.456761796588770537E-31, -1.000000000000000000, -1.276467311168695019E-16 ) ) ;
#81 = AXIS2_PLACEMENT_3D ( 'NONE', #205, #147, #260 ) ;
#82 = VECTOR ( 'NONE', #151, 1000.000000000000000 ) ;
#83 = ORIENTED_EDGE ( 'NONE', *, *, #242, .F. ) ;
#84 = ORIENTED_EDGE ( 'NONE', *, *, #50, .T. ) ;
#85 = CARTESIAN_POINT ( 'NONE',  ( 8.346658820482449543E-14, 6.999999999999992006, 23.66025403784432513 ) ) ;
#86 = ORIENTED_EDGE ( 'NONE', *, *, #301, .T. ) ;
#87 = DIRECTION ( 'NONE',  ( 0.000000000000000000, -1.000000000000000000, 0.000000000000000000 ) ) ;
#88 = ORIENTED_EDGE ( 'NONE', *, *, #118, .T. ) ;
#89 = LINE ( 'NONE', #361, #124 ) ;
#90 = DIRECTION ( 'NONE',  ( 3.491481338843133355E-15, -1.276467311168695266E-16, 1.000000000000000000 ) ) ;
#91 = ADVANCED_FACE ( 'NONE', ( #109 ), #45, .F. ) ;
#92 = APPROVAL_ROLE ( '' ) ;
#93 = AXIS2_PLACEMENT_3D ( 'NONE', #326, #295, #80 ) ;
#94 = PERSON_AND_ORGANIZATION_ROLE ( 'classification_officer' ) ;
#95 = PRODUCT_DEFINITION_FORMATION_WITH_SPECIFIED_SOURCE ( 'ANY', '', #60, .NOT_KNOWN. ) ;
#96 = MECHANICAL_CONTEXT ( 'NONE', #36, 'mechanical' ) ;
#97 = CALENDAR_DATE ( 2023, 31, 3 ) ;
#98 = EDGE_LOOP ( 'NONE', ( #139, #86, #285, #129 ) ) ;
#99 = AXIS2_PLACEMENT_3D ( 'NONE', #135, #253, #197 ) ;
#100 = FACE_OUTER_BOUND ( 'NONE', #325, .T. ) ;
#101 = VERTEX_POINT ( 'NONE', #305 ) ;
#102 = FACE_OUTER_BOUND ( 'NONE', #245, .T. ) ;
#103 = ADVANCED_FACE ( 'NONE', ( #100 ), #227, .T. ) ;
#104 = ADVANCED_FACE ( 'NONE', ( #15 ), #334, .T. ) ;
#105 = FACE_OUTER_BOUND ( 'NONE', #294, .T. ) ;
#106 = AXIS2_PLACEMENT_3D ( 'NONE', #224, #355, #163 ) ;
#107 = VERTEX_POINT ( 'NONE', #74 ) ;
#108 = DIRECTION ( 'NONE',  ( 3.491481338843133355E-15, -1.276467311168695266E-16, 1.000000000000000000 ) ) ;
#109 = FACE_OUTER_BOUND ( 'NONE', #310, .T. ) ;
#110 = FACE_OUTER_BOUND ( 'NONE', #358, .T. ) ;
#111 = MANIFOLD_SOLID_BREP ( 'Corps-Déplacer/Copier1[1]', #191 ) ;
#112 = CIRCLE ( 'NONE', #159, 1.999999999999995337 ) ;
#113 = VERTEX_POINT ( 'NONE', #199 ) ;
#114 = DIRECTION ( 'NONE',  ( -4.275831445896958607E-31, -1.000000000000000000, -1.224646799147353207E-16 ) ) ;
#115 = VERTEX_POINT ( 'NONE', #79 ) ;
#116 = DIRECTION ( 'NONE',  ( 3.491481338843133355E-15, -1.276467311168695266E-16, 1.000000000000000000 ) ) ;
#117 = FACE_OUTER_BOUND ( 'NONE', #254, .T. ) ;
#118 = EDGE_CURVE ( 'NONE', #12, #342, #130, .T. ) ;
#119 = CARTESIAN_POINT ( 'NONE',  ( 1.724791781388507751E-13, -6.049755187787923576E-15, 49.39999999999999147 ) ) ;
#120 =( LENGTH_UNIT ( ) NAMED_UNIT ( * ) SI_UNIT ( .MILLI., .METRE. ) );
#121 = LOCAL_TIME ( 9, 9, 11.00000000000000000, #345 ) ;
#122 = CARTESIAN_POINT ( 'NONE',  ( 1.018508793313979568E-13, -2.999999999999993339, 8.732050807568842998 ) ) ;
#123 = PERSON_AND_ORGANIZATION ( #38, #181 ) ;
#124 = VECTOR ( 'NONE', #284, 1000.000000000000000 ) ;
#125 = CARTESIAN_POINT ( 'NONE',  ( 0.000000000000000000, 0.000000000000000000, 0.000000000000000000 ) ) ;
#126 = CALENDAR_DATE ( 2023, 31, 3 ) ;
#127 = CC_DESIGN_DATE_AND_TIME_ASSIGNMENT ( #162, #273, ( #34 ) ) ;
#128 = CONICAL_SURFACE ( 'NONE', #13, 2.399999999999994138, 0.7853981633974396193 ) ;
#129 = ORIENTED_EDGE ( 'NONE', *, *, #275, .F. ) ;
#130 = LINE ( 'NONE', #51, #76 ) ;
#131 = CC_DESIGN_PERSON_AND_ORGANIZATION_ASSIGNMENT ( #290, #7, ( #60 ) ) ;
#132 = ORIENTED_EDGE ( 'NONE', *, *, #78, .T. ) ;
#133 = CARTESIAN_POINT ( 'NONE',  ( 1.745740669421566678E-13, 1.799711739194215719E-32, 50.00000000000000000 ) ) ;
#134 = VERTEX_POINT ( 'NONE', #167 ) ;
#135 = CARTESIAN_POINT ( 'NONE',  ( -1.282749230708801178E-30, 4.499278635745965688E-32, -3.673939815854284031E-16 ) ) ;
#136 = CIRCLE ( 'NONE', #155, 2.999999999999991562 ) ;
#137 = FACE_OUTER_BOUND ( 'NONE', #187, .T. ) ;
#138 = CARTESIAN_POINT ( 'NONE',  ( 2.449293598294703949E-16, 1.999999999999995781, 7.159379187309361003E-17 ) ) ;
#139 = ORIENTED_EDGE ( 'NONE', *, *, #203, .T. ) ;
#140 = AXIS2_PLACEMENT_3D ( 'NONE', #58, #256, #145 ) ;
#141 = FACE_OUTER_BOUND ( 'NONE', #18, .T. ) ;
#142 = DIRECTION ( 'NONE',  ( -2.486899575160350335E-14, -1.000000000000000000, 0.000000000000000000 ) ) ;
#143 = AXIS2_PLACEMENT_3D ( 'NONE', #125, #183, #212 ) ;
#144 = EDGE_CURVE ( 'NONE', #233, #308, #283, .T. ) ;
#145 = DIRECTION ( 'NONE',  ( 0.000000000000000000, -1.000000000000000000, 0.000000000000000000 ) ) ;
#146 = ADVANCED_FACE ( 'NONE', ( #329 ), #150, .T. ) ;
#147 = DIRECTION ( 'NONE',  ( 3.491481338843133355E-15, -1.276467311168695266E-16, 1.000000000000000000 ) ) ;
#148 = PLANE ( 'NONE',  #225 ) ;
#149 = CARTESIAN_POINT ( 'NONE',  ( 1.745740669421565731E-14, -6.382336555843472876E-16, 4.999999999999997335 ) ) ;
#150 = CONICAL_SURFACE ( 'NONE', #297, 6.999999999999994671, 0.2617993877991501850 ) ;
#151 = DIRECTION ( 'NONE',  ( -3.491481338843133355E-15, 1.224646799147353207E-16, -1.000000000000000000 ) ) ;
#152 = APPROVAL_DATE_TIME ( #267, #347 ) ;
#153 = COORDINATED_UNIVERSAL_TIME_OFFSET ( 1, 0, .AHEAD. ) ;
#154 = APPROVAL_STATUS ( 'not_yet_approved' ) ;
#155 = AXIS2_PLACEMENT_3D ( 'NONE', #282, #27, #142 ) ;
#156 = APPLICATION_PROTOCOL_DEFINITION ( 'international standard', 'config_control_design', 1994, #164 ) ;
#157 = ORIENTED_EDGE ( 'NONE', *, *, #250, .F. ) ;
#158 = DIRECTION ( 'NONE',  ( -3.491481338843133355E-15, 1.224646799147353207E-16, -1.000000000000000000 ) ) ;
#159 = AXIS2_PLACEMENT_3D ( 'NONE', #281, #32, #87 ) ;
#160 = CC_DESIGN_APPROVAL ( #172, ( #362 ) ) ;
#161 = DIRECTION ( 'NONE',  ( 0.000000000000000000, -1.000000000000000000, 0.000000000000000000 ) ) ;
#162 = DATE_AND_TIME ( #68, #71 ) ;
#163 = DIRECTION ( 'NONE',  ( -4.456761796588771413E-31, -1.000000000000000000, -1.276467311168695019E-16 ) ) ;
#164 = APPLICATION_CONTEXT ( 'configuration controlled 3d designs of mechanical parts and assemblies' ) ;
#165 = DIRECTION ( 'NONE',  ( -3.491481338843133355E-15, 1.224646799147353207E-16, -1.000000000000000000 ) ) ;
#166 = APPROVAL ( #265, 'UNSPECIFIED' ) ;
#167 = CARTESIAN_POINT ( 'NONE',  ( 1.745740669421565731E-14, -1.999999999999995781, 4.999999999999997335 ) ) ;
#168 = ORIENTED_EDGE ( 'NONE', *, *, #25, .T. ) ;
#169 = DIRECTION ( 'NONE',  ( -4.456761796588770537E-31, -1.000000000000000000, -1.276467311168695019E-16 ) ) ;
#170 = ORIENTED_EDGE ( 'NONE', *, *, #301, .F. ) ;
#171 = ADVANCED_FACE ( 'NONE', ( #332 ), #272, .F. ) ;
#172 = APPROVAL ( #154, 'UNSPECIFIED' ) ;
#173 = CIRCLE ( 'NONE', #8, 1.999999999999995781 ) ;
#174 = LINE ( 'NONE', #85, #229 ) ;
#175 = ORIENTED_EDGE ( 'NONE', *, *, #78, .F. ) ;
#176 = CARTESIAN_POINT ( 'NONE',  ( 1.745740669421565731E-14, 2.249639673992776833E-32, 4.999999999999997335 ) ) ;
#177 = VERTEX_POINT ( 'NONE', #353 ) ;
#178 = CARTESIAN_POINT ( 'NONE',  ( 1.745740669421565731E-14, -6.382336555843472876E-16, 4.999999999999997335 ) ) ;
#179 =( NAMED_UNIT ( * ) SI_UNIT ( $, .STERADIAN. ) SOLID_ANGLE_UNIT ( ) );
#180 = AXIS2_PLACEMENT_3D ( 'NONE', #356, #338, #114 ) ;
#181 = ORGANIZATION ( 'UNSPECIFIED', 'UNSPECIFIED', '' ) ;
#182 = APPROVAL_ROLE ( '' ) ;
#183 = DIRECTION ( 'NONE',  ( 0.000000000000000000, 0.000000000000000000, 1.000000000000000000 ) ) ;
#184 = ADVANCED_FACE ( 'NONE', ( #105 ), #303, .T. ) ;
#185 = PERSON_AND_ORGANIZATION ( #38, #181 ) ;
#186 = AXIS2_PLACEMENT_3D ( 'NONE', #77, #48, #196 ) ;
#187 = EDGE_LOOP ( 'NONE', ( #249, #339 ) ) ;
#188 = ORIENTED_EDGE ( 'NONE', *, *, #62, .F. ) ;
#189 = DIRECTION ( 'NONE',  ( 0.000000000000000000, -1.000000000000000000, 0.000000000000000000 ) ) ;
#190 = DIRECTION ( 'NONE',  ( -3.491481338843133355E-15, 1.224646799147353207E-16, -1.000000000000000000 ) ) ;
#191 = CLOSED_SHELL ( 'NONE', ( #37, #67, #104, #39, #299, #171, #146, #211 ) ) ;
#192 = DATE_AND_TIME ( #11, #29 ) ;
#193 = ADVANCED_BREP_SHAPE_REPRESENTATION ( '381025', ( #111, #238, #143 ), #257 ) ;
#194 = ORIENTED_EDGE ( 'NONE', *, *, #264, .F. ) ;
#195 = APPROVAL_PERSON_ORGANIZATION ( #123, #166, #240 ) ;
#196 = DIRECTION ( 'NONE',  ( -4.456761796588771413E-31, -1.000000000000000000, -1.276467311168695019E-16 ) ) ;
#197 = DIRECTION ( 'NONE',  ( -4.275831445896958607E-31, -1.000000000000000000, -1.224646799147353207E-16 ) ) ;
#198 = CC_DESIGN_DATE_AND_TIME_ASSIGNMENT ( #348, #65, ( #362 ) ) ;
#199 = CARTESIAN_POINT ( 'NONE',  ( 1.745740669421566678E-13, 2.399999999999987921, 50.00000000000000000 ) ) ;
#200 = CC_DESIGN_APPROVAL ( #166, ( #95 ) ) ;
#201 = ORIENTED_EDGE ( 'NONE', *, *, #250, .T. ) ;
#202 = VERTEX_POINT ( 'NONE', #226 ) ;
#203 = EDGE_CURVE ( 'NONE', #208, #107, #244, .T. ) ;
#204 = DIRECTION ( 'NONE',  ( 3.404208188709233130E-15, 0.2588190451025213501, 0.9659258262890680902 ) ) ;
#205 = CARTESIAN_POINT ( 'NONE',  ( 8.260933544542134939E-14, -3.020154085325540840E-15, 23.66025403784432513 ) ) ;
#206 = VECTOR ( 'NONE', #108, 1000.000000000000000 ) ;
#207 = DIRECTION ( 'NONE',  ( -3.491481338843133355E-15, 1.224646799147353207E-16, -1.000000000000000000 ) ) ;
#208 = VERTEX_POINT ( 'NONE', #21 ) ;
#209 = DIRECTION ( 'NONE',  ( 0.000000000000000000, 1.000000000000000000, 0.000000000000000000 ) ) ;
#210 = CC_DESIGN_PERSON_AND_ORGANIZATION_ASSIGNMENT ( #320, #319, ( #95 ) ) ;
#211 = ADVANCED_FACE ( 'NONE', ( #137 ), #252, .F. ) ;
#212 = DIRECTION ( 'NONE',  ( 1.000000000000000000, 0.000000000000000000, 0.000000000000000000 ) ) ;
#213 = AXIS2_PLACEMENT_3D ( 'NONE', #316, #207, #33 ) ;
#214 = SHAPE_DEFINITION_REPRESENTATION ( #343, #193 ) ;
#215 = AXIS2_PLACEMENT_3D ( 'NONE', #119, #236, #209 ) ;
#216 = APPLICATION_PROTOCOL_DEFINITION ( 'international standard', 'config_control_design', 1994, #36 ) ;
#217 = EDGE_CURVE ( 'NONE', #177, #115, #174, .T. ) ;
#218 = PERSON_AND_ORGANIZATION_ROLE ( 'creator' ) ;
#219 = AXIS2_PLACEMENT_3D ( 'NONE', #44, #246, #271 ) ;
#220 = AXIS2_PLACEMENT_3D ( 'NONE', #259, #315, #234 ) ;
#221 = ORIENTED_EDGE ( 'NONE', *, *, #25, .F. ) ;
#222 = CARTESIAN_POINT ( 'NONE',  ( 0.000000000000000000, 0.000000000000000000, 0.000000000000000000 ) ) ;
#223 = CARTESIAN_POINT ( 'NONE',  ( 1.745740669421566678E-13, -6.123233995736766085E-15, 50.00000000000000000 ) ) ;
#224 = CARTESIAN_POINT ( 'NONE',  ( -6.413839710158237013E-31, 0.000000000000000000, -1.836996703606440502E-16 ) ) ;
#225 = AXIS2_PLACEMENT_3D ( 'NONE', #176, #1, #63 ) ;
#226 = CARTESIAN_POINT ( 'NONE',  ( 8.973632706937297374E-15, 1.999999999999994893, 4.999999999999997335 ) ) ;
#227 = CYLINDRICAL_SURFACE ( 'NONE', #186, 1.999999999999995781 ) ;
#228 = CYLINDRICAL_SURFACE ( 'NONE', #311, 2.999999999999991562 ) ;
#229 = VECTOR ( 'NONE', #204, 1000.000000000000000 ) ;
#230 = EDGE_CURVE ( 'NONE', #101, #113, #64, .T. ) ;
#231 = ORIENTED_EDGE ( 'NONE', *, *, #264, .T. ) ;
#232 = FACE_OUTER_BOUND ( 'NONE', #235, .T. ) ;
#233 = VERTEX_POINT ( 'NONE', #309 ) ;
#234 = DIRECTION ( 'NONE',  ( 0.000000000000000000, 1.000000000000000000, 0.000000000000000000 ) ) ;
#235 = EDGE_LOOP ( 'NONE', ( #31, #269 ) ) ;
#236 = DIRECTION ( 'NONE',  ( -3.491481338843133355E-15, 1.224646799147353207E-16, -1.000000000000000000 ) ) ;
#237 = PRODUCT_RELATED_PRODUCT_CATEGORY ( 'detail', '', ( #60 ) ) ;
#238 = MANIFOLD_SOLID_BREP ( 'Corps-Déplacer/Copier1[2]', #70 ) ;
#239 = EDGE_CURVE ( 'NONE', #308, #134, #89, .T. ) ;
#240 = APPROVAL_ROLE ( '' ) ;
#241 = VECTOR ( 'NONE', #357, 1000.000000000000114 ) ;
#242 = EDGE_CURVE ( 'NONE', #202, #134, #112, .T. ) ;
#243 = PERSON_AND_ORGANIZATION_ROLE ( 'creator' ) ;
#244 = CIRCLE ( 'NONE', #289, 2.999999999999993783 ) ;
#245 = EDGE_LOOP ( 'NONE', ( #337, #168, #363, #157 ) ) ;
#246 = DIRECTION ( 'NONE',  ( -3.491481338843133355E-15, 1.224646799147353207E-16, -1.000000000000000000 ) ) ;
#247 = ORIENTED_EDGE ( 'NONE', *, *, #312, .F. ) ;
#248 = DIRECTION ( 'NONE',  ( 4.275831445896958607E-31, 1.000000000000000000, 1.224646799147353207E-16 ) ) ;
#249 = ORIENTED_EDGE ( 'NONE', *, *, #340, .F. ) ;
#250 = EDGE_CURVE ( 'NONE', #113, #208, #56, .T. ) ;
#251 = DIRECTION ( 'NONE',  ( 3.491481338843133355E-15, -1.276467311168695266E-16, 1.000000000000000000 ) ) ;
#252 = PLANE ( 'NONE',  #180 ) ;
#253 = DIRECTION ( 'NONE',  ( 3.491481338843133355E-15, -1.224646799147353207E-16, 1.000000000000000000 ) ) ;
#254 = EDGE_LOOP ( 'NONE', ( #170, #43, #293, #306 ) ) ;
#255 = CONICAL_SURFACE ( 'NONE', #81, 6.999999999999994671, 0.2617993877991501850 ) ;
#256 = DIRECTION ( 'NONE',  ( 3.491481338843133355E-15, -1.276467311168695266E-16, 1.000000000000000000 ) ) ;
#257 =( GEOMETRIC_REPRESENTATION_CONTEXT ( 3 ) GLOBAL_UNCERTAINTY_ASSIGNED_CONTEXT ( ( #322 ) ) GLOBAL_UNIT_ASSIGNED_CONTEXT ( ( #120, #6, #179 ) ) REPRESENTATION_CONTEXT ( 'NONE', 'WORKASPACE' ) );
#258 = CARTESIAN_POINT ( 'NONE',  ( 1.748679821739520473E-13, -2.400000000000000355, 50.00000000000000000 ) ) ;
#259 = CARTESIAN_POINT ( 'NONE',  ( 1.745740669421566678E-13, -6.123233995736766085E-15, 50.00000000000000000 ) ) ;
#260 = DIRECTION ( 'NONE',  ( 0.000000000000000000, -1.000000000000000000, 0.000000000000000000 ) ) ;
#261 = CARTESIAN_POINT ( 'NONE',  ( 1.745740669421566678E-13, 2.399999999999987921, 50.00000000000000000 ) ) ;
#262 = DIRECTION ( 'NONE',  ( 0.000000000000000000, -1.000000000000000000, 0.000000000000000000 ) ) ;
#263 = EDGE_CURVE ( 'NONE', #177, #12, #331, .T. ) ;
#264 = EDGE_CURVE ( 'NONE', #308, #233, #173, .T. ) ;
#265 = APPROVAL_STATUS ( 'not_yet_approved' ) ;
#266 = VECTOR ( 'NONE', #3, 1000.000000000000000 ) ;
#267 = DATE_AND_TIME ( #317, #121 ) ;
#268 = APPROVAL_DATE_TIME ( #192, #166 ) ;
#269 = ORIENTED_EDGE ( 'NONE', *, *, #242, .T. ) ;
#270 = AXIS2_PLACEMENT_3D ( 'NONE', #276, #23, #189 ) ;
#271 = DIRECTION ( 'NONE',  ( 0.000000000000000000, 1.000000000000000000, 0.000000000000000000 ) ) ;
#272 = PLANE ( 'NONE',  #350 ) ;
#273 = DATE_TIME_ROLE ( 'classification_date' ) ;
#274 = ADVANCED_FACE ( 'NONE', ( #232 ), #148, .T. ) ;
#275 = EDGE_CURVE ( 'NONE', #208, #115, #30, .T. ) ;
#276 = CARTESIAN_POINT ( 'NONE',  ( 3.048779244445672757E-14, -1.114617741532583553E-15, 8.732050807568842998 ) ) ;
#277 = DIRECTION ( 'NONE',  ( -3.491481338843133355E-15, 1.224646799147353207E-16, -1.000000000000000000 ) ) ;
#278 = DIRECTION ( 'NONE',  ( -3.491481338843133355E-15, 1.224646799147353207E-16, -1.000000000000000000 ) ) ;
#279 = CC_DESIGN_APPROVAL ( #347, ( #34 ) ) ;
#280 = ORIENTED_EDGE ( 'NONE', *, *, #263, .T. ) ;
#281 = CARTESIAN_POINT ( 'NONE',  ( 1.745740669421565731E-14, -6.382336555843472876E-16, 4.999999999999997335 ) ) ;
#282 = CARTESIAN_POINT ( 'NONE',  ( 3.048779244445672757E-14, -1.114617741532583553E-15, 8.732050807568842998 ) ) ;
#283 = CIRCLE ( 'NONE', #93, 1.999999999999995781 ) ;
#284 = DIRECTION ( 'NONE',  ( 3.491481338843133355E-15, -1.276467311168695266E-16, 1.000000000000000000 ) ) ;
#285 = ORIENTED_EDGE ( 'NONE', *, *, #10, .F. ) ;
#286 = DIRECTION ( 'NONE',  ( 3.491481338843133355E-15, -1.276467311168695266E-16, 1.000000000000000000 ) ) ;
#287 = ORIENTED_EDGE ( 'NONE', *, *, #230, .F. ) ;
#288 = DIRECTION ( 'NONE',  ( 0.000000000000000000, -1.000000000000000000, 0.000000000000000000 ) ) ;
#289 = AXIS2_PLACEMENT_3D ( 'NONE', #333, #277, #53 ) ;
#290 = PERSON_AND_ORGANIZATION ( #38, #181 ) ;
#291 = COORDINATED_UNIVERSAL_TIME_OFFSET ( 1, 0, .AHEAD. ) ;
#292 = APPROVAL_STATUS ( 'not_yet_approved' ) ;
#293 = ORIENTED_EDGE ( 'NONE', *, *, #275, .T. ) ;
#294 = EDGE_LOOP ( 'NONE', ( #231, #132, #247, #55 ) ) ;
#295 = DIRECTION ( 'NONE',  ( 3.491481338843133355E-15, -1.276467311168695266E-16, 1.000000000000000000 ) ) ;
#296 = ORIENTED_EDGE ( 'NONE', *, *, #10, .T. ) ;
#297 = AXIS2_PLACEMENT_3D ( 'NONE', #298, #251, #161 ) ;
#298 = CARTESIAN_POINT ( 'NONE',  ( 8.260933544542134939E-14, -3.020154085325540840E-15, 23.66025403784432513 ) ) ;
#299 = ADVANCED_FACE ( 'NONE', ( #141 ), #52, .T. ) ;
#300 = PERSON_AND_ORGANIZATION ( #38, #181 ) ;
#301 = EDGE_CURVE ( 'NONE', #107, #342, #344, .T. ) ;
#302 = AXIS2_PLACEMENT_3D ( 'NONE', #149, #286, #262 ) ;
#303 = CYLINDRICAL_SURFACE ( 'NONE', #106, 1.999999999999995781 ) ;
#304 = DIRECTION ( 'NONE',  ( 3.372511997194914833E-15, -0.2588190451025215166, 0.9659258262890679791 ) ) ;
#305 = CARTESIAN_POINT ( 'NONE',  ( 1.738572771762734887E-13, -2.400000000000000355, 50.00000000000000000 ) ) ;
#306 = ORIENTED_EDGE ( 'NONE', *, *, #50, .F. ) ;
#307 = CARTESIAN_POINT ( 'NONE',  ( -6.022350094394100757E-30, 1.967253063215384507E-31, -1.724869621210561718E-15 ) ) ;
#308 = VERTEX_POINT ( 'NONE', #313 ) ;
#309 = CARTESIAN_POINT ( 'NONE',  ( 8.973632706937297374E-15, 1.999999999999995781, -1.469576158976854713E-15 ) ) ;
#310 = EDGE_LOOP ( 'NONE', ( #194, #314 ) ) ;
#311 = AXIS2_PLACEMENT_3D ( 'NONE', #335, #278, #17 ) ;
#312 = EDGE_CURVE ( 'NONE', #134, #202, #318, .T. ) ;
#313 = CARTESIAN_POINT ( 'NONE',  ( -6.913702453711853288E-30, -1.999999999999995781, -1.980163083444300081E-15 ) ) ;
#314 = ORIENTED_EDGE ( 'NONE', *, *, #144, .F. ) ;
#315 = DIRECTION ( 'NONE',  ( -3.491481338843133355E-15, 1.224646799147353207E-16, -1.000000000000000000 ) ) ;
#316 = CARTESIAN_POINT ( 'NONE',  ( 1.745740669421566678E-13, -6.123233995736766085E-15, 50.00000000000000000 ) ) ;
#317 = CALENDAR_DATE ( 2023, 31, 3 ) ;
#318 = CIRCLE ( 'NONE', #302, 1.999999999999995337 ) ;
#319 = PERSON_AND_ORGANIZATION_ROLE ( 'design_supplier' ) ;
#320 = PERSON_AND_ORGANIZATION ( #38, #181 ) ;
#321 = CC_DESIGN_PERSON_AND_ORGANIZATION_ASSIGNMENT ( #9, #243, ( #362 ) ) ;
#322 = UNCERTAINTY_MEASURE_WITH_UNIT (LENGTH_MEASURE( 1.000000000000000082E-05 ), #120, 'distance_accuracy_value', 'NONE');
#323 = APPROVAL_DATE_TIME ( #75, #172 ) ;
#324 = CC_DESIGN_SECURITY_CLASSIFICATION ( #34, ( #95 ) ) ;
#325 = EDGE_LOOP ( 'NONE', ( #175, #14, #327, #83 ) ) ;
#326 = CARTESIAN_POINT ( 'NONE',  ( -6.022350094394100757E-30, 1.967253063215384507E-31, -1.724869621210561718E-15 ) ) ;
#327 = ORIENTED_EDGE ( 'NONE', *, *, #239, .T. ) ;
#328 = EDGE_CURVE ( 'NONE', #107, #208, #66, .T. ) ;
#329 = FACE_OUTER_BOUND ( 'NONE', #24, .T. ) ;
#330 = ORIENTED_EDGE ( 'NONE', *, *, #340, .T. ) ;
#331 = CIRCLE ( 'NONE', #140, 1.999999999999995337 ) ;
#332 = FACE_OUTER_BOUND ( 'NONE', #54, .T. ) ;
#333 = CARTESIAN_POINT ( 'NONE',  ( 1.724791781388507751E-13, -6.049755187787923576E-15, 49.39999999999999147 ) ) ;
#334 = CYLINDRICAL_SURFACE ( 'NONE', #28, 2.999999999999991562 ) ;
#335 = CARTESIAN_POINT ( 'NONE',  ( 0.000000000000000000, 0.000000000000000000, 0.000000000000000000 ) ) ;
#336 = AXIS2_PLACEMENT_3D ( 'NONE', #178, #90, #288 ) ;
#337 = ORIENTED_EDGE ( 'NONE', *, *, #62, .T. ) ;
#338 = DIRECTION ( 'NONE',  ( 3.491481338843133355E-15, -1.224646799147353207E-16, 1.000000000000000000 ) ) ;
#339 = ORIENTED_EDGE ( 'NONE', *, *, #263, .F. ) ;
#340 = EDGE_CURVE ( 'NONE', #12, #177, #46, .T. ) ;
#341 = CARTESIAN_POINT ( 'NONE',  ( 3.673940397442036695E-16, -2.999999999999991562, -3.673940397442061840E-16 ) ) ;
#342 = VERTEX_POINT ( 'NONE', #122 ) ;
#343 = PRODUCT_DEFINITION_SHAPE ( 'NONE', 'NONE',  #362 ) ;
#344 = LINE ( 'NONE', #341, #82 ) ;
#345 = COORDINATED_UNIVERSAL_TIME_OFFSET ( 1, 0, .AHEAD. ) ;
#346 = LOCAL_TIME ( 9, 9, 11.00000000000000000, #35 ) ;
#347 = APPROVAL ( #292, 'UNSPECIFIED' ) ;
#348 = DATE_AND_TIME ( #126, #360 ) ;
#349 = ORIENTED_EDGE ( 'NONE', *, *, #118, .F. ) ;
#350 = AXIS2_PLACEMENT_3D ( 'NONE', #133, #165, #248 ) ;
#351 = ORIENTED_EDGE ( 'NONE', *, *, #328, .F. ) ;
#352 = DIRECTION ( 'NONE',  ( 4.275831445896958607E-31, 1.000000000000000000, 1.224646799147353207E-16 ) ) ;
#353 = CARTESIAN_POINT ( 'NONE',  ( 2.427876126912302242E-14, 1.999999999999994893, 4.999999999999997335 ) ) ;
#354 = ORIENTED_EDGE ( 'NONE', *, *, #217, .T. ) ;
#355 = DIRECTION ( 'NONE',  ( 3.491481338843133355E-15, -1.276467311168695266E-16, 1.000000000000000000 ) ) ;
#356 = CARTESIAN_POINT ( 'NONE',  ( 1.745740669421565731E-14, 2.249639673992776833E-32, 4.999999999999997335 ) ) ;
#357 = DIRECTION ( 'NONE',  ( -2.382254525458738374E-15, -0.7071067811865412445, -0.7071067811865536790 ) ) ;
#358 = EDGE_LOOP ( 'NONE', ( #330, #354, #296, #349 ) ) ;
#359 = VECTOR ( 'NONE', #61, 999.9999999999998863 ) ;
#360 = LOCAL_TIME ( 9, 9, 11.00000000000000000, #291 ) ;
#361 = CARTESIAN_POINT ( 'NONE',  ( -1.532736330333575969E-30, -1.999999999999995781, -4.389931325943825610E-16 ) ) ;
#362 = PRODUCT_DEFINITION ( 'UNKNOWN', '', #95, #42 ) ;
#363 = ORIENTED_EDGE ( 'NONE', *, *, #203, .F. ) ;
ENDSEC;
END-ISO-10303-21;
