ISO-10303-21;
HEADER;
FILE_DESCRIPTION (( 'STEP AP203' ),
    '1' );
FILE_NAME ('381024.step',
    '2023-03-31T06:31:58',
    ( '' ),
    ( '' ),
    'SwSTEP 2.0',
    'SolidWorks 2022',
    '' );
FILE_SCHEMA (( 'CONFIG_CONTROL_DESIGN' ));
ENDSEC;

DATA;
#1 = ORIENTED_EDGE ( 'NONE', *, *, #85, .F. ) ;
#2 = CARTESIAN_POINT ( 'NONE',  ( 0.000000000000000000, 0.000000000000000000, 0.000000000000000000 ) ) ;
#3 = DIRECTION ( 'NONE',  ( 4.275831445896958607E-31, 1.000000000000000000, 1.224646799147353207E-16 ) ) ;
#4 = APPROVAL_PERSON_ORGANIZATION ( #116, #258, #283 ) ;
#5 = EDGE_CURVE ( 'NONE', #119, #206, #277, .T. ) ;
#6 = EDGE_LOOP ( 'NONE', ( #346, #174, #127, #73 ) ) ;
#7 = DIRECTION ( 'NONE',  ( -4.456761796588771413E-31, -1.000000000000000000, -1.276467311168695019E-16 ) ) ;
#8 = CARTESIAN_POINT ( 'NONE',  ( -6.022350094394100757E-30, 1.967253063215384507E-31, -1.724869621210561718E-15 ) ) ;
#9 = CIRCLE ( 'NONE', #72, 1.999999999999995781 ) ;
#10 = EDGE_LOOP ( 'NONE', ( #351, #122, #42, #290 ) ) ;
#11 = CIRCLE ( 'NONE', #201, 1.999999999999995337 ) ;
#12 = CC_DESIGN_PERSON_AND_ORGANIZATION_ASSIGNMENT ( #200, #59, ( #357 ) ) ;
#13 = ORIENTED_EDGE ( 'NONE', *, *, #157, .T. ) ;
#14 = VERTEX_POINT ( 'NONE', #70 ) ;
#15 = CYLINDRICAL_SURFACE ( 'NONE', #23, 1.999999999999995781 ) ;
#16 = CARTESIAN_POINT ( 'NONE',  ( 3.048779244445672757E-14, -1.114617741532583553E-15, 8.732050807568842998 ) ) ;
#17 = VERTEX_POINT ( 'NONE', #315 ) ;
#18 = EDGE_CURVE ( 'NONE', #173, #125, #75, .T. ) ;
#19 = PLANE ( 'NONE',  #240 ) ;
#20 = DIRECTION ( 'NONE',  ( 3.491481338843133355E-15, -1.276467311168695266E-16, 1.000000000000000000 ) ) ;
#21 = PERSON_AND_ORGANIZATION ( #52, #161 ) ;
#22 = CARTESIAN_POINT ( 'NONE',  ( -6.913702453711853288E-30, -1.999999999999995781, -1.980163083444300081E-15 ) ) ;
#23 = AXIS2_PLACEMENT_3D ( 'NONE', #284, #34, #7 ) ;
#24 = COORDINATED_UNIVERSAL_TIME_OFFSET ( 1, 0, .AHEAD. ) ;
#25 = DIRECTION ( 'NONE',  ( 0.000000000000000000, -1.000000000000000000, 0.000000000000000000 ) ) ;
#26 = CARTESIAN_POINT ( 'NONE',  ( 1.018508793313979568E-13, -2.999999999999993339, 8.732050807568842998 ) ) ;
#27 = COORDINATED_UNIVERSAL_TIME_OFFSET ( 1, 0, .AHEAD. ) ;
#28 = AXIS2_PLACEMENT_3D ( 'NONE', #71, #128, #40 ) ;
#29 = CONICAL_SURFACE ( 'NONE', #342, 6.999999999999994671, 0.2617993877991501850 ) ;
#30 = DIRECTION ( 'NONE',  ( 0.000000000000000000, 1.000000000000000000, 0.000000000000000000 ) ) ;
#31 = EDGE_CURVE ( 'NONE', #316, #155, #321, .T. ) ;
#32 = LOCAL_TIME ( 8, 31, 58.00000000000000000, #105 ) ;
#33 = VECTOR ( 'NONE', #326, 1000.000000000000000 ) ;
#34 = DIRECTION ( 'NONE',  ( 3.491481338843133355E-15, -1.276467311168695266E-16, 1.000000000000000000 ) ) ;
#35 = DIRECTION ( 'NONE',  ( -2.486899575160350335E-14, -1.000000000000000000, 0.000000000000000000 ) ) ;
#36 = ORIENTED_EDGE ( 'NONE', *, *, #253, .T. ) ;
#37 = DIRECTION ( 'NONE',  ( 1.000000000000000000, 0.000000000000000000, 0.000000000000000000 ) ) ;
#38 = ORIENTED_EDGE ( 'NONE', *, *, #209, .T. ) ;
#39 = CYLINDRICAL_SURFACE ( 'NONE', #358, 2.999999999999991562 ) ;
#40 = DIRECTION ( 'NONE',  ( 0.000000000000000000, -1.000000000000000000, 0.000000000000000000 ) ) ;
#41 = CC_DESIGN_PERSON_AND_ORGANIZATION_ASSIGNMENT ( #96, #207, ( #168 ) ) ;
#42 = ORIENTED_EDGE ( 'NONE', *, *, #145, .T. ) ;
#43 = LINE ( 'NONE', #153, #97 ) ;
#44 = LOCAL_TIME ( 8, 31, 58.00000000000000000, #27 ) ;
#45 = AXIS2_PLACEMENT_3D ( 'NONE', #238, #138, #76 ) ;
#46 = ORIENTED_EDGE ( 'NONE', *, *, #302, .T. ) ;
#47 = ORIENTED_EDGE ( 'NONE', *, *, #282, .F. ) ;
#48 = EDGE_CURVE ( 'NONE', #17, #212, #139, .T. ) ;
#49 = DATE_AND_TIME ( #190, #292 ) ;
#50 = PLANE ( 'NONE',  #191 ) ;
#51 = DIRECTION ( 'NONE',  ( -3.491481338843133355E-15, 1.224646799147353207E-16, -1.000000000000000000 ) ) ;
#52 = PERSON ( 'UNSPECIFIED', 'UNSPECIFIED', 'UNSPECIFIED', ('UNSPECIFIED'), ('UNSPECIFIED'), ('UNSPECIFIED') ) ;
#53 = ADVANCED_FACE ( 'NONE', ( #196 ), #29, .T. ) ;
#54 = CARTESIAN_POINT ( 'NONE',  ( 1.745740669421566678E-13, 1.799711739194215719E-32, 50.00000000000000000 ) ) ;
#55 = DIRECTION ( 'NONE',  ( -4.456761796588771413E-31, -1.000000000000000000, -1.276467311168695019E-16 ) ) ;
#56 = DATE_AND_TIME ( #299, #124 ) ;
#57 = CARTESIAN_POINT ( 'NONE',  ( 3.673940397442036695E-16, -2.999999999999991562, -3.673940397442061840E-16 ) ) ;
#58 = LINE ( 'NONE', #215, #33 ) ;
#59 = PERSON_AND_ORGANIZATION_ROLE ( 'classification_officer' ) ;
#60 = FACE_OUTER_BOUND ( 'NONE', #10, .T. ) ;
#61 = ADVANCED_FACE ( 'NONE', ( #300 ), #50, .F. ) ;
#62 = CALENDAR_DATE ( 2023, 31, 3 ) ;
#63 = CIRCLE ( 'NONE', #106, 2.399999999999994138 ) ;
#64 = CC_DESIGN_APPROVAL ( #258, ( #168 ) ) ;
#65 = VERTEX_POINT ( 'NONE', #246 ) ;
#66 = APPLICATION_PROTOCOL_DEFINITION ( 'international standard', 'config_control_design', 1994, #269 ) ;
#67 = ORIENTED_EDGE ( 'NONE', *, *, #198, .F. ) ;
#68 = DIRECTION ( 'NONE',  ( 0.000000000000000000, 0.000000000000000000, 1.000000000000000000 ) ) ;
#69 = DIRECTION ( 'NONE',  ( -4.456761796588770537E-31, -1.000000000000000000, -1.276467311168695019E-16 ) ) ;
#70 = CARTESIAN_POINT ( 'NONE',  ( 1.745740669421566678E-13, 2.399999999999987921, 50.00000000000000000 ) ) ;
#71 = CARTESIAN_POINT ( 'NONE',  ( 1.745740669421565731E-14, -6.382336555843472876E-16, 4.999999999999997335 ) ) ;
#72 = AXIS2_PLACEMENT_3D ( 'NONE', #8, #121, #69 ) ;
#73 = ORIENTED_EDGE ( 'NONE', *, *, #31, .F. ) ;
#74 = DIRECTION ( 'NONE',  ( 3.491481338843133355E-15, -1.276467311168695266E-16, 1.000000000000000000 ) ) ;
#75 = CIRCLE ( 'NONE', #28, 1.999999999999995337 ) ;
#76 = DIRECTION ( 'NONE',  ( 0.000000000000000000, -1.000000000000000000, 0.000000000000000000 ) ) ;
#77 =( NAMED_UNIT ( * ) PLANE_ANGLE_UNIT ( ) SI_UNIT ( $, .RADIAN. ) );
#78 = LINE ( 'NONE', #194, #295 ) ;
#79 = CARTESIAN_POINT ( 'NONE',  ( 2.427876126912302242E-14, 1.999999999999994893, 4.999999999999997335 ) ) ;
#80 = CC_DESIGN_PERSON_AND_ORGANIZATION_ASSIGNMENT ( #135, #137, ( #260 ) ) ;
#81 = APPROVAL_ROLE ( '' ) ;
#82 = DIRECTION ( 'NONE',  ( 0.000000000000000000, -1.000000000000000000, 0.000000000000000000 ) ) ;
#83 = DIRECTION ( 'NONE',  ( 0.000000000000000000, 1.000000000000000000, 0.000000000000000000 ) ) ;
#84 = SECURITY_CLASSIFICATION_LEVEL ( 'unclassified' ) ;
#85 = EDGE_CURVE ( 'NONE', #316, #250, #199, .T. ) ;
#86 = DIRECTION ( 'NONE',  ( 3.491481338843133355E-15, -1.276467311168695266E-16, 1.000000000000000000 ) ) ;
#87 = VERTEX_POINT ( 'NONE', #111 ) ;
#88 = CARTESIAN_POINT ( 'NONE',  ( 1.745740669421565731E-14, -1.999999999999995781, 4.999999999999997335 ) ) ;
#89 = AXIS2_PLACEMENT_3D ( 'NONE', #16, #350, #176 ) ;
#90 = AXIS2_PLACEMENT_3D ( 'NONE', #166, #86, #195 ) ;
#91 = CARTESIAN_POINT ( 'NONE',  ( 8.973632706937297374E-15, 1.999999999999995781, -1.469576158976854713E-15 ) ) ;
#92 = ORIENTED_EDGE ( 'NONE', *, *, #188, .F. ) ;
#93 = PERSON_AND_ORGANIZATION ( #52, #161 ) ;
#94 = EDGE_CURVE ( 'NONE', #119, #212, #214, .T. ) ;
#95 = ORIENTED_EDGE ( 'NONE', *, *, #18, .F. ) ;
#96 = PERSON_AND_ORGANIZATION ( #52, #161 ) ;
#97 = VECTOR ( 'NONE', #330, 1000.000000000000114 ) ;
#98 = DIRECTION ( 'NONE',  ( -3.491481338843133355E-15, 1.224646799147353207E-16, -1.000000000000000000 ) ) ;
#99 = APPROVAL ( #340, 'UNSPECIFIED' ) ;
#100 = DIRECTION ( 'NONE',  ( -4.456761796588770537E-31, -1.000000000000000000, -1.276467311168695019E-16 ) ) ;
#101 = EDGE_CURVE ( 'NONE', #14, #155, #78, .T. ) ;
#102 = DIRECTION ( 'NONE',  ( -3.491481338843133355E-15, 1.224646799147353207E-16, -1.000000000000000000 ) ) ;
#103 = DIRECTION ( 'NONE',  ( 3.491481338843133355E-15, -1.276467311168695266E-16, 1.000000000000000000 ) ) ;
#104 = DIRECTION ( 'NONE',  ( 4.275831445896958607E-31, 1.000000000000000000, 1.224646799147353207E-16 ) ) ;
#105 = COORDINATED_UNIVERSAL_TIME_OFFSET ( 1, 0, .AHEAD. ) ;
#106 = AXIS2_PLACEMENT_3D ( 'NONE', #241, #217, #276 ) ;
#107 = CC_DESIGN_SECURITY_CLASSIFICATION ( #357, ( #260 ) ) ;
#108 = AXIS2_PLACEMENT_3D ( 'NONE', #354, #305, #83 ) ;
#109 = CARTESIAN_POINT ( 'NONE',  ( 1.745740669421566678E-13, -6.123233995736766085E-15, 50.00000000000000000 ) ) ;
#110 = DIRECTION ( 'NONE',  ( 3.491481338843133355E-15, -1.224646799147353207E-16, 1.000000000000000000 ) ) ;
#111 = CARTESIAN_POINT ( 'NONE',  ( 1.014834852916538018E-13, 2.999999999999990230, 8.732050807568842998 ) ) ;
#112 = DIRECTION ( 'NONE',  ( 0.000000000000000000, -1.000000000000000000, 0.000000000000000000 ) ) ;
#113 = ORIENTED_EDGE ( 'NONE', *, *, #232, .T. ) ;
#114 = CALENDAR_DATE ( 2023, 31, 3 ) ;
#115 = EDGE_LOOP ( 'NONE', ( #129, #95 ) ) ;
#116 = PERSON_AND_ORGANIZATION ( #52, #161 ) ;
#117 = CARTESIAN_POINT ( 'NONE',  ( 0.000000000000000000, 0.000000000000000000, 0.000000000000000000 ) ) ;
#118 = DATE_AND_TIME ( #62, #44 ) ;
#119 = VERTEX_POINT ( 'NONE', #91 ) ;
#120 = EDGE_CURVE ( 'NONE', #87, #250, #279, .T. ) ;
#121 = DIRECTION ( 'NONE',  ( 3.491481338843133355E-15, -1.276467311168695266E-16, 1.000000000000000000 ) ) ;
#122 = ORIENTED_EDGE ( 'NONE', *, *, #5, .T. ) ;
#123 = CARTESIAN_POINT ( 'NONE',  ( 1.745740669421566678E-13, -6.123233995736766085E-15, 50.00000000000000000 ) ) ;
#124 = LOCAL_TIME ( 8, 31, 58.00000000000000000, #24 ) ;
#125 = VERTEX_POINT ( 'NONE', #88 ) ;
#126 = VECTOR ( 'NONE', #103, 1000.000000000000000 ) ;
#127 = ORIENTED_EDGE ( 'NONE', *, *, #101, .T. ) ;
#128 = DIRECTION ( 'NONE',  ( 3.491481338843133355E-15, -1.276467311168695266E-16, 1.000000000000000000 ) ) ;
#129 = ORIENTED_EDGE ( 'NONE', *, *, #247, .F. ) ;
#130 = DIRECTION ( 'NONE',  ( 4.275831445896958607E-31, 1.000000000000000000, 1.224646799147353207E-16 ) ) ;
#131 = LINE ( 'NONE', #163, #152 ) ;
#132 = ADVANCED_FACE ( 'NONE', ( #205 ), #178, .T. ) ;
#133 = CONICAL_SURFACE ( 'NONE', #336, 2.399999999999994138, 0.7853981633974396193 ) ;
#134 = DIRECTION ( 'NONE',  ( 0.000000000000000000, 1.000000000000000000, 0.000000000000000000 ) ) ;
#135 = PERSON_AND_ORGANIZATION ( #52, #161 ) ;
#136 = CARTESIAN_POINT ( 'NONE',  ( -6.413839710158237013E-31, 0.000000000000000000, -1.836996703606440502E-16 ) ) ;
#137 = PERSON_AND_ORGANIZATION_ROLE ( 'creator' ) ;
#138 = DIRECTION ( 'NONE',  ( 3.491481338843133355E-15, -1.276467311168695266E-16, 1.000000000000000000 ) ) ;
#139 = CIRCLE ( 'NONE', #204, 1.999999999999995337 ) ;
#140 = APPROVAL_DATE_TIME ( #56, #333 ) ;
#141 = DATE_TIME_ROLE ( 'classification_date' ) ;
#142 = VECTOR ( 'NONE', #197, 1000.000000000000000 ) ;
#143 = ADVANCED_FACE ( 'NONE', ( #281 ), #39, .T. ) ;
#144 = ORIENTED_EDGE ( 'NONE', *, *, #31, .T. ) ;
#145 = EDGE_CURVE ( 'NONE', #206, #17, #203, .T. ) ;
#146 = ORIENTED_EDGE ( 'NONE', *, *, #247, .T. ) ;
#147 = DIRECTION ( 'NONE',  ( -3.491481338843133355E-15, 1.224646799147353207E-16, -1.000000000000000000 ) ) ;
#148 = ORIENTED_EDGE ( 'NONE', *, *, #85, .T. ) ;
#149 = CIRCLE ( 'NONE', #307, 2.399999999999994138 ) ;
#150 = ADVANCED_FACE ( 'NONE', ( #320 ), #248, .T. ) ;
#151 = DESIGN_CONTEXT ( 'detailed design', #287, 'design' ) ;
#152 = VECTOR ( 'NONE', #273, 1000.000000000000114 ) ;
#153 = CARTESIAN_POINT ( 'NONE',  ( 1.748679821739520473E-13, -2.400000000000000355, 50.00000000000000000 ) ) ;
#154 = ORIENTED_EDGE ( 'NONE', *, *, #145, .F. ) ;
#155 = VERTEX_POINT ( 'NONE', #183 ) ;
#156 = VECTOR ( 'NONE', #325, 1000.000000000000000 ) ;
#157 = EDGE_CURVE ( 'NONE', #65, #316, #43, .T. ) ;
#158 = CARTESIAN_POINT ( 'NONE',  ( 0.000000000000000000, 0.000000000000000000, 0.000000000000000000 ) ) ;
#159 = DATE_AND_TIME ( #193, #32 ) ;
#160 = FACE_OUTER_BOUND ( 'NONE', #115, .T. ) ;
#161 = ORGANIZATION ( 'UNSPECIFIED', 'UNSPECIFIED', '' ) ;
#162 = DIRECTION ( 'NONE',  ( -3.491481338843133355E-15, 1.224646799147353207E-16, -1.000000000000000000 ) ) ;
#163 = CARTESIAN_POINT ( 'NONE',  ( 8.260933544542134939E-14, -6.999999999999997335, 23.66025403784432513 ) ) ;
#164 = MANIFOLD_SOLID_BREP ( 'Corps-Déplacer/Copier1[1]', #181 ) ;
#165 = MANIFOLD_SOLID_BREP ( 'Corps-Déplacer/Copier1[2]', #334 ) ;
#166 = CARTESIAN_POINT ( 'NONE',  ( 8.260933544542134939E-14, -3.020154085325540840E-15, 23.66025403784432513 ) ) ;
#167 = DIRECTION ( 'NONE',  ( 3.491481338843133355E-15, -1.276467311168695266E-16, 1.000000000000000000 ) ) ;
#168 = PRODUCT_DEFINITION ( 'UNKNOWN', '', #260, #151 ) ;
#169 = CC_DESIGN_APPROVAL ( #99, ( #357 ) ) ;
#170 = CONICAL_SURFACE ( 'NONE', #90, 6.999999999999994671, 0.2617993877991501850 ) ;
#171 = MECHANICAL_CONTEXT ( 'NONE', #269, 'mechanical' ) ;
#172 = CARTESIAN_POINT ( 'NONE',  ( 3.048779244445672757E-14, -1.114617741532583553E-15, 8.732050807568842998 ) ) ;
#173 = VERTEX_POINT ( 'NONE', #79 ) ;
#174 = ORIENTED_EDGE ( 'NONE', *, *, #298, .T. ) ;
#175 = COORDINATED_UNIVERSAL_TIME_OFFSET ( 1, 0, .AHEAD. ) ;
#176 = DIRECTION ( 'NONE',  ( 0.000000000000000000, -1.000000000000000000, 0.000000000000000000 ) ) ;
#177 = ORIENTED_EDGE ( 'NONE', *, *, #5, .F. ) ;
#178 = PLANE ( 'NONE',  #231 ) ;
#179 = UNCERTAINTY_MEASURE_WITH_UNIT (LENGTH_MEASURE( 1.000000000000000082E-05 ), #218, 'distance_accuracy_value', 'NONE');
#180 = ORIENTED_EDGE ( 'NONE', *, *, #48, .F. ) ;
#181 = CLOSED_SHELL ( 'NONE', ( #53, #150, #254, #143, #274, #61, #219, #329 ) ) ;
#182 = ORIENTED_EDGE ( 'NONE', *, *, #318, .T. ) ;
#183 = CARTESIAN_POINT ( 'NONE',  ( 1.724791781388507751E-13, 2.999999999999988010, 49.39999999999999147 ) ) ;
#184 = CC_DESIGN_DATE_AND_TIME_ASSIGNMENT ( #118, #141, ( #357 ) ) ;
#185 = EDGE_LOOP ( 'NONE', ( #182, #210, #180, #154 ) ) ;
#186 = PRODUCT_RELATED_PRODUCT_CATEGORY ( 'detail', '', ( #243 ) ) ;
#187 = PRODUCT_DEFINITION_SHAPE ( 'NONE', 'NONE',  #168 ) ;
#188 = EDGE_CURVE ( 'NONE', #155, #316, #296, .T. ) ;
#189 = AXIS2_PLACEMENT_3D ( 'NONE', #314, #263, #100 ) ;
#190 = CALENDAR_DATE ( 2023, 31, 3 ) ;
#191 = AXIS2_PLACEMENT_3D ( 'NONE', #54, #162, #130 ) ;
#192 = AXIS2_PLACEMENT_3D ( 'NONE', #136, #301, #55 ) ;
#193 = CALENDAR_DATE ( 2023, 31, 3 ) ;
#194 = CARTESIAN_POINT ( 'NONE',  ( 1.745740669421566678E-13, 2.399999999999987921, 50.00000000000000000 ) ) ;
#195 = DIRECTION ( 'NONE',  ( 0.000000000000000000, -1.000000000000000000, 0.000000000000000000 ) ) ;
#196 = FACE_OUTER_BOUND ( 'NONE', #237, .T. ) ;
#197 = DIRECTION ( 'NONE',  ( -3.491481338843133355E-15, 1.224646799147353207E-16, -1.000000000000000000 ) ) ;
#198 = EDGE_CURVE ( 'NONE', #173, #87, #58, .T. ) ;
#199 = LINE ( 'NONE', #57, #312 ) ;
#200 = PERSON_AND_ORGANIZATION ( #52, #161 ) ;
#201 = AXIS2_PLACEMENT_3D ( 'NONE', #323, #167, #112 ) ;
#202 = ORIENTED_EDGE ( 'NONE', *, *, #120, .T. ) ;
#203 = LINE ( 'NONE', #332, #126 ) ;
#204 = AXIS2_PLACEMENT_3D ( 'NONE', #319, #74, #82 ) ;
#205 = FACE_OUTER_BOUND ( 'NONE', #294, .T. ) ;
#206 = VERTEX_POINT ( 'NONE', #22 ) ;
#207 = PERSON_AND_ORGANIZATION_ROLE ( 'creator' ) ;
#208 = DIRECTION ( 'NONE',  ( 0.000000000000000000, 1.000000000000000000, 0.000000000000000000 ) ) ;
#209 = EDGE_CURVE ( 'NONE', #155, #87, #245, .T. ) ;
#210 = ORIENTED_EDGE ( 'NONE', *, *, #94, .T. ) ;
#211 = AXIS2_PLACEMENT_3D ( 'NONE', #158, #268, #104 ) ;
#212 = VERTEX_POINT ( 'NONE', #303 ) ;
#213 = FACE_OUTER_BOUND ( 'NONE', #280, .T. ) ;
#214 = LINE ( 'NONE', #239, #156 ) ;
#215 = CARTESIAN_POINT ( 'NONE',  ( 8.346658820482449543E-14, 6.999999999999992006, 23.66025403784432513 ) ) ;
#216 = CIRCLE ( 'NONE', #45, 1.999999999999995337 ) ;
#217 = DIRECTION ( 'NONE',  ( -3.491481338843133355E-15, 1.224646799147353207E-16, -1.000000000000000000 ) ) ;
#218 =( LENGTH_UNIT ( ) NAMED_UNIT ( * ) SI_UNIT ( .MILLI., .METRE. ) );
#219 = ADVANCED_FACE ( 'NONE', ( #213 ), #170, .T. ) ;
#220 = CARTESIAN_POINT ( 'NONE',  ( 1.745740669421565731E-14, 2.249639673992776833E-32, 4.999999999999997335 ) ) ;
#221 = ORIENTED_EDGE ( 'NONE', *, *, #209, .F. ) ;
#222 = AXIS2_PLACEMENT_3D ( 'NONE', #339, #110, #304 ) ;
#223 = ORIENTED_EDGE ( 'NONE', *, *, #48, .T. ) ;
#224 = DATE_AND_TIME ( #114, #293 ) ;
#225 = ADVANCED_FACE ( 'NONE', ( #60 ), #271, .T. ) ;
#226 = PERSON_AND_ORGANIZATION ( #52, #161 ) ;
#227 = DIRECTION ( 'NONE',  ( 3.491481338843133355E-15, -1.224646799147353207E-16, 1.000000000000000000 ) ) ;
#228 = APPROVAL_DATE_TIME ( #224, #99 ) ;
#229 = ORIENTED_EDGE ( 'NONE', *, *, #232, .F. ) ;
#230 = APPROVAL_DATE_TIME ( #49, #258 ) ;
#231 = AXIS2_PLACEMENT_3D ( 'NONE', #220, #249, #288 ) ;
#232 = EDGE_CURVE ( 'NONE', #125, #250, #131, .T. ) ;
#233 = ORIENTED_EDGE ( 'NONE', *, *, #18, .T. ) ;
#234 = FACE_OUTER_BOUND ( 'NONE', #185, .T. ) ;
#235 = ORIENTED_EDGE ( 'NONE', *, *, #318, .F. ) ;
#236 = CARTESIAN_POINT ( 'NONE',  ( 1.724791781388507751E-13, -6.049755187787923576E-15, 49.39999999999999147 ) ) ;
#237 = EDGE_LOOP ( 'NONE', ( #146, #285, #202, #229 ) ) ;
#238 = CARTESIAN_POINT ( 'NONE',  ( 1.745740669421565731E-14, -6.382336555843472876E-16, 4.999999999999997335 ) ) ;
#239 = CARTESIAN_POINT ( 'NONE',  ( 2.449293598294703949E-16, 1.999999999999995781, 7.159379187309361003E-17 ) ) ;
#240 = AXIS2_PLACEMENT_3D ( 'NONE', #352, #227, #289 ) ;
#241 = CARTESIAN_POINT ( 'NONE',  ( 1.745740669421566678E-13, -6.123233995736766085E-15, 50.00000000000000000 ) ) ;
#242 = AXIS2_PLACEMENT_3D ( 'NONE', #172, #309, #35 ) ;
#243 = PRODUCT ( '381024', '381024', '', ( #171 ) ) ;
#244 = PERSON_AND_ORGANIZATION ( #52, #161 ) ;
#245 = LINE ( 'NONE', #360, #142 ) ;
#246 = CARTESIAN_POINT ( 'NONE',  ( 1.738572771762734887E-13, -2.400000000000000355, 50.00000000000000000 ) ) ;
#247 = EDGE_CURVE ( 'NONE', #125, #173, #11, .T. ) ;
#248 = CONICAL_SURFACE ( 'NONE', #261, 2.399999999999994138, 0.7853981633974396193 ) ;
#249 = DIRECTION ( 'NONE',  ( 3.491481338843133355E-15, -1.224646799147353207E-16, 1.000000000000000000 ) ) ;
#250 = VERTEX_POINT ( 'NONE', #26 ) ;
#251 = PERSON_AND_ORGANIZATION_ROLE ( 'design_owner' ) ;
#252 = CARTESIAN_POINT ( 'NONE',  ( 1.745740669421566678E-13, -6.123233995736766085E-15, 50.00000000000000000 ) ) ;
#253 = EDGE_CURVE ( 'NONE', #212, #17, #216, .T. ) ;
#254 = ADVANCED_FACE ( 'NONE', ( #363 ), #353, .T. ) ;
#255 = CARTESIAN_POINT ( 'NONE',  ( 1.018508793313978180E-13, -3.000000000000000000, 49.39999999999999147 ) ) ;
#256 = ORIENTED_EDGE ( 'NONE', *, *, #302, .F. ) ;
#257 = FACE_OUTER_BOUND ( 'NONE', #343, .T. ) ;
#258 = APPROVAL ( #337, 'UNSPECIFIED' ) ;
#259 = ORIENTED_EDGE ( 'NONE', *, *, #101, .F. ) ;
#260 = PRODUCT_DEFINITION_FORMATION_WITH_SPECIFIED_SOURCE ( 'ANY', '', #243, .NOT_KNOWN. ) ;
#261 = AXIS2_PLACEMENT_3D ( 'NONE', #123, #98, #348 ) ;
#262 = ORIENTED_EDGE ( 'NONE', *, *, #188, .T. ) ;
#263 = DIRECTION ( 'NONE',  ( 3.491481338843133355E-15, -1.276467311168695266E-16, 1.000000000000000000 ) ) ;
#264 = EDGE_LOOP ( 'NONE', ( #335, #13, #92, #259 ) ) ;
#265 = COORDINATED_UNIVERSAL_TIME_OFFSET ( 1, 0, .AHEAD. ) ;
#266 = DIRECTION ( 'NONE',  ( -3.491481338843133355E-15, 1.224646799147353207E-16, -1.000000000000000000 ) ) ;
#267 = CC_DESIGN_PERSON_AND_ORGANIZATION_ASSIGNMENT ( #244, #359, ( #260 ) ) ;
#268 = DIRECTION ( 'NONE',  ( -3.491481338843133355E-15, 1.224646799147353207E-16, -1.000000000000000000 ) ) ;
#269 = APPLICATION_CONTEXT ( 'configuration controlled 3d designs of mechanical parts and assemblies' ) ;
#270 = AXIS2_PLACEMENT_3D ( 'NONE', #2, #68, #37 ) ;
#271 = CYLINDRICAL_SURFACE ( 'NONE', #192, 1.999999999999995781 ) ;
#272 =( NAMED_UNIT ( * ) SI_UNIT ( $, .STERADIAN. ) SOLID_ANGLE_UNIT ( ) );
#273 = DIRECTION ( 'NONE',  ( 3.372511997194914833E-15, -0.2588190451025215166, 0.9659258262890679791 ) ) ;
#274 = ADVANCED_FACE ( 'NONE', ( #297 ), #133, .T. ) ;
#275 = DIRECTION ( 'NONE',  ( -2.468850131082286643E-15, 0.7071067811865414665, -0.7071067811865536790 ) ) ;
#276 = DIRECTION ( 'NONE',  ( 0.000000000000000000, 1.000000000000000000, 0.000000000000000000 ) ) ;
#277 = CIRCLE ( 'NONE', #189, 1.999999999999995781 ) ;
#278 = APPROVAL_PERSON_ORGANIZATION ( #21, #333, #81 ) ;
#279 = CIRCLE ( 'NONE', #242, 2.999999999999991562 ) ;
#280 = EDGE_LOOP ( 'NONE', ( #67, #233, #113, #46 ) ) ;
#281 = FACE_OUTER_BOUND ( 'NONE', #291, .T. ) ;
#282 = EDGE_CURVE ( 'NONE', #14, #65, #63, .T. ) ;
#283 = APPROVAL_ROLE ( '' ) ;
#284 = CARTESIAN_POINT ( 'NONE',  ( -6.413839710158237013E-31, 0.000000000000000000, -1.836996703606440502E-16 ) ) ;
#285 = ORIENTED_EDGE ( 'NONE', *, *, #198, .T. ) ;
#286 = APPLICATION_PROTOCOL_DEFINITION ( 'international standard', 'config_control_design', 1994, #287 ) ;
#287 = APPLICATION_CONTEXT ( 'configuration controlled 3d designs of mechanical parts and assemblies' ) ;
#288 = DIRECTION ( 'NONE',  ( -4.275831445896958607E-31, -1.000000000000000000, -1.224646799147353207E-16 ) ) ;
#289 = DIRECTION ( 'NONE',  ( -4.275831445896958607E-31, -1.000000000000000000, -1.224646799147353207E-16 ) ) ;
#290 = ORIENTED_EDGE ( 'NONE', *, *, #253, .F. ) ;
#291 = EDGE_LOOP ( 'NONE', ( #1, #144, #38, #256 ) ) ;
#292 = LOCAL_TIME ( 8, 31, 58.00000000000000000, #265 ) ;
#293 = LOCAL_TIME ( 8, 31, 58.00000000000000000, #175 ) ;
#294 = EDGE_LOOP ( 'NONE', ( #223, #36 ) ) ;
#295 = VECTOR ( 'NONE', #275, 999.9999999999998863 ) ;
#296 = CIRCLE ( 'NONE', #108, 2.999999999999993783 ) ;
#297 = FACE_OUTER_BOUND ( 'NONE', #6, .T. ) ;
#298 = EDGE_CURVE ( 'NONE', #65, #14, #149, .T. ) ;
#299 = CALENDAR_DATE ( 2023, 31, 3 ) ;
#300 = FACE_OUTER_BOUND ( 'NONE', #349, .T. ) ;
#301 = DIRECTION ( 'NONE',  ( 3.491481338843133355E-15, -1.276467311168695266E-16, 1.000000000000000000 ) ) ;
#302 = EDGE_CURVE ( 'NONE', #250, #87, #355, .T. ) ;
#303 = CARTESIAN_POINT ( 'NONE',  ( 8.973632706937297374E-15, 1.999999999999994893, 4.999999999999997335 ) ) ;
#304 = DIRECTION ( 'NONE',  ( -4.275831445896958607E-31, -1.000000000000000000, -1.224646799147353207E-16 ) ) ;
#305 = DIRECTION ( 'NONE',  ( -3.491481338843133355E-15, 1.224646799147353207E-16, -1.000000000000000000 ) ) ;
#306 = ORIENTED_EDGE ( 'NONE', *, *, #120, .F. ) ;
#307 = AXIS2_PLACEMENT_3D ( 'NONE', #252, #311, #30 ) ;
#308 = APPROVAL_PERSON_ORGANIZATION ( #226, #99, #313 ) ;
#309 = DIRECTION ( 'NONE',  ( -3.491481338843133355E-15, 1.276467311168695266E-16, -1.000000000000000000 ) ) ;
#310 = CC_DESIGN_DATE_AND_TIME_ASSIGNMENT ( #159, #356, ( #168 ) ) ;
#311 = DIRECTION ( 'NONE',  ( -3.491481338843133355E-15, 1.224646799147353207E-16, -1.000000000000000000 ) ) ;
#312 = VECTOR ( 'NONE', #266, 1000.000000000000000 ) ;
#313 = APPROVAL_ROLE ( '' ) ;
#314 = CARTESIAN_POINT ( 'NONE',  ( -6.022350094394100757E-30, 1.967253063215384507E-31, -1.724869621210561718E-15 ) ) ;
#315 = CARTESIAN_POINT ( 'NONE',  ( 1.745740669421565731E-14, -1.999999999999995781, 4.999999999999997335 ) ) ;
#316 = VERTEX_POINT ( 'NONE', #255 ) ;
#317 =( GEOMETRIC_REPRESENTATION_CONTEXT ( 3 ) GLOBAL_UNCERTAINTY_ASSIGNED_CONTEXT ( ( #179 ) ) GLOBAL_UNIT_ASSIGNED_CONTEXT ( ( #218, #77, #272 ) ) REPRESENTATION_CONTEXT ( 'NONE', 'WORKASPACE' ) );
#318 = EDGE_CURVE ( 'NONE', #206, #119, #9, .T. ) ;
#319 = CARTESIAN_POINT ( 'NONE',  ( 1.745740669421565731E-14, -6.382336555843472876E-16, 4.999999999999997335 ) ) ;
#320 = FACE_OUTER_BOUND ( 'NONE', #264, .T. ) ;
#321 = CIRCLE ( 'NONE', #362, 2.999999999999993783 ) ;
#322 = CC_DESIGN_PERSON_AND_ORGANIZATION_ASSIGNMENT ( #93, #251, ( #243 ) ) ;
#323 = CARTESIAN_POINT ( 'NONE',  ( 1.745740669421565731E-14, -6.382336555843472876E-16, 4.999999999999997335 ) ) ;
#324 = CC_DESIGN_APPROVAL ( #333, ( #260 ) ) ;
#325 = DIRECTION ( 'NONE',  ( 3.491481338843133355E-15, -1.276467311168695266E-16, 1.000000000000000000 ) ) ;
#326 = DIRECTION ( 'NONE',  ( 3.404208188709233130E-15, 0.2588190451025213501, 0.9659258262890680902 ) ) ;
#327 = APPROVAL_STATUS ( 'not_yet_approved' ) ;
#328 = CARTESIAN_POINT ( 'NONE',  ( 8.260933544542134939E-14, -3.020154085325540840E-15, 23.66025403784432513 ) ) ;
#329 = ADVANCED_FACE ( 'NONE', ( #160 ), #19, .F. ) ;
#330 = DIRECTION ( 'NONE',  ( -2.382254525458738374E-15, -0.7071067811865412445, -0.7071067811865536790 ) ) ;
#331 = ORIENTED_EDGE ( 'NONE', *, *, #298, .F. ) ;
#332 = CARTESIAN_POINT ( 'NONE',  ( -1.532736330333575969E-30, -1.999999999999995781, -4.389931325943825610E-16 ) ) ;
#333 = APPROVAL ( #327, 'UNSPECIFIED' ) ;
#334 = CLOSED_SHELL ( 'NONE', ( #347, #132, #225, #361 ) ) ;
#335 = ORIENTED_EDGE ( 'NONE', *, *, #282, .T. ) ;
#336 = AXIS2_PLACEMENT_3D ( 'NONE', #109, #51, #134 ) ;
#337 = APPROVAL_STATUS ( 'not_yet_approved' ) ;
#338 = SHAPE_DEFINITION_REPRESENTATION ( #187, #341 ) ;
#339 = CARTESIAN_POINT ( 'NONE',  ( -1.282749230708801178E-30, 4.499278635745965688E-32, -3.673939815854284031E-16 ) ) ;
#340 = APPROVAL_STATUS ( 'not_yet_approved' ) ;
#341 = ADVANCED_BREP_SHAPE_REPRESENTATION ( '381024', ( #164, #165, #270 ), #317 ) ;
#342 = AXIS2_PLACEMENT_3D ( 'NONE', #328, #20, #25 ) ;
#343 = EDGE_LOOP ( 'NONE', ( #235, #177 ) ) ;
#344 = PLANE ( 'NONE',  #222 ) ;
#345 = EDGE_LOOP ( 'NONE', ( #262, #148, #306, #221 ) ) ;
#346 = ORIENTED_EDGE ( 'NONE', *, *, #157, .F. ) ;
#347 = ADVANCED_FACE ( 'NONE', ( #234 ), #15, .T. ) ;
#348 = DIRECTION ( 'NONE',  ( 0.000000000000000000, 1.000000000000000000, 0.000000000000000000 ) ) ;
#349 = EDGE_LOOP ( 'NONE', ( #47, #331 ) ) ;
#350 = DIRECTION ( 'NONE',  ( -3.491481338843133355E-15, 1.276467311168695266E-16, -1.000000000000000000 ) ) ;
#351 = ORIENTED_EDGE ( 'NONE', *, *, #94, .F. ) ;
#352 = CARTESIAN_POINT ( 'NONE',  ( 1.745740669421565731E-14, 2.249639673992776833E-32, 4.999999999999997335 ) ) ;
#353 = CYLINDRICAL_SURFACE ( 'NONE', #211, 2.999999999999991562 ) ;
#354 = CARTESIAN_POINT ( 'NONE',  ( 1.724791781388507751E-13, -6.049755187787923576E-15, 49.39999999999999147 ) ) ;
#355 = CIRCLE ( 'NONE', #89, 2.999999999999991562 ) ;
#356 = DATE_TIME_ROLE ( 'creation_date' ) ;
#357 = SECURITY_CLASSIFICATION ( '', '', #84 ) ;
#358 = AXIS2_PLACEMENT_3D ( 'NONE', #117, #147, #3 ) ;
#359 = PERSON_AND_ORGANIZATION_ROLE ( 'design_supplier' ) ;
#360 = CARTESIAN_POINT ( 'NONE',  ( 1.282749433769083904E-30, 2.999999999999991562, 3.673940397442049021E-16 ) ) ;
#361 = ADVANCED_FACE ( 'NONE', ( #257 ), #344, .F. ) ;
#362 = AXIS2_PLACEMENT_3D ( 'NONE', #236, #102, #208 ) ;
#363 = FACE_OUTER_BOUND ( 'NONE', #345, .T. ) ;
ENDSEC;
END-ISO-10303-21;
