ISO-10303-21;
HEADER;
FILE_DESCRIPTION (( 'STEP AP203' ),
    '1' );
FILE_NAME ('38098.step',
    '2021-10-07T13:47:43',
    ( '' ),
    ( '' ),
    'SwSTEP 2.0',
    'SolidWorks 2019',
    '' );
FILE_SCHEMA (( 'CONFIG_CONTROL_DESIGN' ));
ENDSEC;

DATA;
#1 = AXIS2_PLACEMENT_3D ( 'NONE', #3, #117, #150 ) ;
#2 = DIRECTION ( 'NONE',  ( -3.491481338843133355E-15, 1.224646799147353207E-16, -1.000000000000000000 ) ) ;
#3 = CARTESIAN_POINT ( 'NONE',  ( 2.569919707261089738E-15, -9.014064914366127916E-17, 0.7360542583087688051 ) ) ;
#4 = DIRECTION ( 'NONE',  ( 3.491481338843133355E-15, -1.224646799147353207E-16, 1.000000000000000000 ) ) ;
#5 = ORGANIZATION ( 'UNSPECIFIED', 'UNSPECIFIED', '' ) ;
#6 = FACE_OUTER_BOUND ( 'NONE', #83, .T. ) ;
#7 = EDGE_CURVE ( 'NONE', #182, #182, #214, .T. ) ;
#8 = CARTESIAN_POINT ( 'NONE',  ( 1.490862531686017501E-13, 1.249999999999995559, 42.69999999999998863 ) ) ;
#9 = VERTEX_POINT ( 'NONE', #17 ) ;
#10 = APPROVAL_STATUS ( 'not_yet_approved' ) ;
#11 = CC_DESIGN_PERSON_AND_ORGANIZATION_ASSIGNMENT ( #45, #39, ( #69 ) ) ;
#12 = ORIENTED_EDGE ( 'NONE', *, *, #7, .T. ) ;
#13 = DIRECTION ( 'NONE',  ( -3.491481338843133355E-15, 1.224646799147353207E-16, -1.000000000000000000 ) ) ;
#14 = CIRCLE ( 'NONE', #181, 1.225000000000000089 ) ;
#15 = CALENDAR_DATE ( 2021, 7, 10 ) ;
#16 = PERSON_AND_ORGANIZATION ( #25, #5 ) ;
#17 = CARTESIAN_POINT ( 'NONE',  ( 4.204896164293145024E-14, 1.249999999999994893, 12.04330127018921637 ) ) ;
#18 = DIRECTION ( 'NONE',  ( -3.491481338843133355E-15, 1.224646799147353207E-16, -1.000000000000000000 ) ) ;
#19 = CARTESIAN_POINT ( 'NONE',  ( 4.189777606611760026E-14, 9.186028668803857321E-33, 12.00000000000000000 ) ) ;
#20 = FACE_OUTER_BOUND ( 'NONE', #159, .T. ) ;
#21 = CONICAL_SURFACE ( 'NONE', #119, 1.249999999999996447, 0.5235987755982962621 ) ;
#22 = PLANE ( 'NONE',  #199 ) ;
#23 = CARTESIAN_POINT ( 'NONE',  ( 0.0000000000000000000, 0.0000000000000000000, 0.0000000000000000000 ) ) ;
#24 = AXIS2_PLACEMENT_3D ( 'NONE', #64, #67, #75 ) ;
#25 = PERSON ( 'UNSPECIFIED', 'UNSPECIFIED', 'UNSPECIFIED', ('UNSPECIFIED'), ('UNSPECIFIED'), ('UNSPECIFIED') ) ;
#26 = ORIENTED_EDGE ( 'NONE', *, *, #165, .T. ) ;
#27 = LOCAL_TIME ( 15, 47, 43.00000000000000000, #192 ) ;
#28 = EDGE_LOOP ( 'NONE', ( #99 ) ) ;
#29 = PRODUCT_DEFINITION_SHAPE ( 'NONE', 'NONE',  #133 ) ;
#30 = DIRECTION ( 'NONE',  ( -3.491481338843133355E-15, 1.224646799147353207E-16, -1.000000000000000000 ) ) ;
#31 = PERSON_AND_ORGANIZATION ( #25, #5 ) ;
#32 = CC_DESIGN_APPROVAL ( #55, ( #147 ) ) ;
#33 = DIRECTION ( 'NONE',  ( -3.491481338843133355E-15, 1.224646799147353207E-16, -1.000000000000000000 ) ) ;
#34 = ADVANCED_FACE ( 'NONE', ( #186 ), #121, .T. ) ;
#35 = CARTESIAN_POINT ( 'NONE',  ( 1.501336975702547217E-13, 7.123858967643751109E-33, 43.00000000000000000 ) ) ;
#36 = PRODUCT_RELATED_PRODUCT_CATEGORY ( 'detail', '', ( #169 ) ) ;
#37 = VERTEX_POINT ( 'NONE', #78 ) ;
#38 = DIRECTION ( 'NONE',  ( 0.0000000000000000000, 1.000000000000000000, 0.0000000000000000000 ) ) ;
#39 = PERSON_AND_ORGANIZATION_ROLE ( 'classification_officer' ) ;
#40 = CALENDAR_DATE ( 2021, 7, 10 ) ;
#41 = PERSON_AND_ORGANIZATION_ROLE ( 'creator' ) ;
#42 = COORDINATED_UNIVERSAL_TIME_OFFSET ( 1, 0, .AHEAD. ) ;
#43 = APPLICATION_PROTOCOL_DEFINITION ( 'international standard', 'config_control_design', 1994, #202 ) ;
#44 = APPROVAL_DATE_TIME ( #96, #77 ) ;
#45 = PERSON_AND_ORGANIZATION ( #25, #5 ) ;
#46 = CALENDAR_DATE ( 2021, 7, 10 ) ;
#47 = AXIS2_PLACEMENT_3D ( 'NONE', #93, #137, #171 ) ;
#48 = EDGE_LOOP ( 'NONE', ( #142 ) ) ;
#49 = COORDINATED_UNIVERSAL_TIME_OFFSET ( 1, 0, .AHEAD. ) ;
#50 = PERSON_AND_ORGANIZATION_ROLE ( 'design_supplier' ) ;
#51 = DIRECTION ( 'NONE',  ( 4.275831445896959482E-31, 1.000000000000000000, 1.224646799147353207E-16 ) ) ;
#52 = FACE_OUTER_BOUND ( 'NONE', #100, .T. ) ;
#53 = CARTESIAN_POINT ( 'NONE',  ( 1.490862531686017501E-13, -5.229241832359196822E-15, 42.69999999999998863 ) ) ;
#54 = DIRECTION ( 'NONE',  ( -4.275831445896958607E-31, -1.000000000000000000, -1.224646799147353207E-16 ) ) ;
#55 = APPROVAL ( #84, 'UNSPECIFIED' ) ;
#56 = APPROVAL_STATUS ( 'not_yet_approved' ) ;
#57 = LOCAL_TIME ( 15, 47, 43.00000000000000000, #160 ) ;
#58 = PERSON_AND_ORGANIZATION ( #25, #5 ) ;
#59 = MANIFOLD_SOLID_BREP ( 'Corps-Déplacer/Copier1[2]', #94 ) ;
#60 = EDGE_LOOP ( 'NONE', ( #196 ) ) ;
#61 = AXIS2_PLACEMENT_3D ( 'NONE', #134, #30, #148 ) ;
#62 = EDGE_LOOP ( 'NONE', ( #26 ) ) ;
#63 = APPROVAL_DATE_TIME ( #218, #55 ) ;
#64 = CARTESIAN_POINT ( 'NONE',  ( 2.569919707261089738E-15, -9.014064914366127916E-17, 0.7360542583087688051 ) ) ;
#65 = LOCAL_TIME ( 15, 47, 43.00000000000000000, #49 ) ;
#66 = EDGE_CURVE ( 'NONE', #166, #166, #116, .T. ) ;
#67 = DIRECTION ( 'NONE',  ( -3.491481338843133355E-15, 1.224646799147353207E-16, -1.000000000000000000 ) ) ;
#68 = EDGE_CURVE ( 'NONE', #220, #220, #145, .T. ) ;
#69 = SECURITY_CLASSIFICATION ( '', '', #180 ) ;
#70 = CARTESIAN_POINT ( 'NONE',  ( 4.189777606611760026E-14, 9.186028668803857321E-33, 12.00000000000000000 ) ) ;
#71 = PLANE ( 'NONE',  #103 ) ;
#72 = FACE_OUTER_BOUND ( 'NONE', #217, .T. ) ;
#73 = CIRCLE ( 'NONE', #47, 1.249999999999996447 ) ;
#74 = APPROVAL_PERSON_ORGANIZATION ( #140, #77, #123 ) ;
#75 = DIRECTION ( 'NONE',  ( 3.144375419407735222E-31, 1.000000000000000000, 8.850629979473514640E-17 ) ) ;
#76 = DATE_TIME_ROLE ( 'creation_date' ) ;
#77 = APPROVAL ( #10, 'UNSPECIFIED' ) ;
#78 = CARTESIAN_POINT ( 'NONE',  ( 4.189777606611760026E-14, 1.224999999999998757, 12.00000000000000000 ) ) ;
#79 = ORIENTED_EDGE ( 'NONE', *, *, #7, .F. ) ;
#80 = AXIS2_PLACEMENT_3D ( 'NONE', #88, #223, #175 ) ;
#81 = EDGE_LOOP ( 'NONE', ( #79 ) ) ;
#82 = UNCERTAINTY_MEASURE_WITH_UNIT (LENGTH_MEASURE( 1.000000000000000082E-05 ), #213, 'distance_accuracy_value', 'NONE');
#83 = EDGE_LOOP ( 'NONE', ( #114 ) ) ;
#84 = APPROVAL_STATUS ( 'not_yet_approved' ) ;
#85 = SHAPE_DEFINITION_REPRESENTATION ( #29, #210 ) ;
#86 = APPROVAL_ROLE ( '' ) ;
#87 = AXIS2_PLACEMENT_3D ( 'NONE', #70, #135, #139 ) ;
#88 = CARTESIAN_POINT ( 'NONE',  ( 0.0000000000000000000, 0.0000000000000000000, 0.0000000000000000000 ) ) ;
#89 = DIRECTION ( 'NONE',  ( 0.0000000000000000000, 1.000000000000000000, 0.0000000000000000000 ) ) ;
#90 = FACE_OUTER_BOUND ( 'NONE', #197, .T. ) ;
#91 = CYLINDRICAL_SURFACE ( 'NONE', #195, 1.224999999999999423 ) ;
#92 = DESIGN_CONTEXT ( 'detailed design', #104, 'design' ) ;
#93 = CARTESIAN_POINT ( 'NONE',  ( 4.204896164293145024E-14, -1.474879035170447591E-15, 12.04330127018921637 ) ) ;
#94 = CLOSED_SHELL ( 'NONE', ( #216, #146, #34 ) ) ;
#95 = CC_DESIGN_PERSON_AND_ORGANIZATION_ASSIGNMENT ( #16, #50, ( #147 ) ) ;
#96 = DATE_AND_TIME ( #40, #27 ) ;
#97 = CIRCLE ( 'NONE', #208, 1.250000000000000666 ) ;
#98 = CONICAL_SURFACE ( 'NONE', #1, 1.224999999999998757, 1.029744258676649649 ) ;
#99 = ORIENTED_EDGE ( 'NONE', *, *, #143, .T. ) ;
#100 = EDGE_LOOP ( 'NONE', ( #179 ) ) ;
#101 = APPROVAL_PERSON_ORGANIZATION ( #31, #55, #86 ) ;
#102 =( NAMED_UNIT ( * ) SI_UNIT ( $, .STERADIAN. ) SOLID_ANGLE_UNIT ( ) );
#103 = AXIS2_PLACEMENT_3D ( 'NONE', #35, #33, #153 ) ;
#104 = APPLICATION_CONTEXT ( 'configuration controlled 3d designs of mechanical parts and assemblies' ) ;
#105 = CALENDAR_DATE ( 2021, 7, 10 ) ;
#106 = CYLINDRICAL_SURFACE ( 'NONE', #158, 1.249999999999998446 ) ;
#107 = CARTESIAN_POINT ( 'NONE',  ( 1.501336975702547217E-13, 0.9499999999999955147, 43.00000000000000000 ) ) ;
#108 = DIRECTION ( 'NONE',  ( -3.491481338843133355E-15, 1.224646799147353207E-16, -1.000000000000000000 ) ) ;
#109 = DIRECTION ( 'NONE',  ( 3.491481338843133355E-15, -1.224646799147353207E-16, 1.000000000000000000 ) ) ;
#110 = EDGE_CURVE ( 'NONE', #9, #9, #73, .T. ) ;
#111 = APPROVAL_PERSON_ORGANIZATION ( #132, #198, #193 ) ;
#112 = CC_DESIGN_PERSON_AND_ORGANIZATION_ASSIGNMENT ( #58, #156, ( #169 ) ) ;
#113 = DATE_AND_TIME ( #46, #178 ) ;
#114 = ORIENTED_EDGE ( 'NONE', *, *, #110, .T. ) ;
#115 = ADVANCED_FACE ( 'NONE', ( #209 ), #22, .F. ) ;
#116 = CIRCLE ( 'NONE', #141, 1.225000000000000089 ) ;
#117 = DIRECTION ( 'NONE',  ( 3.491481338843133355E-15, -1.224646799147353207E-16, 1.000000000000000000 ) ) ;
#118 = FACE_OUTER_BOUND ( 'NONE', #28, .T. ) ;
#119 = AXIS2_PLACEMENT_3D ( 'NONE', #189, #109, #211 ) ;
#120 = CARTESIAN_POINT ( 'NONE',  ( 0.0000000000000000000, 0.0000000000000000000, 0.0000000000000000000 ) ) ;
#121 = PLANE ( 'NONE',  #87 ) ;
#122 = CARTESIAN_POINT ( 'NONE',  ( 1.501336975702547217E-13, -5.265981236333618470E-15, 43.00000000000000000 ) ) ;
#123 = APPROVAL_ROLE ( '' ) ;
#124 = AXIS2_PLACEMENT_3D ( 'NONE', #122, #18, #89 ) ;
#125 = COORDINATED_UNIVERSAL_TIME_OFFSET ( 1, 0, .AHEAD. ) ;
#126 = APPLICATION_PROTOCOL_DEFINITION ( 'international standard', 'config_control_design', 1994, #104 ) ;
#127 =( NAMED_UNIT ( * ) PLANE_ANGLE_UNIT ( ) SI_UNIT ( $, .RADIAN. ) );
#128 = ORIENTED_EDGE ( 'NONE', *, *, #68, .F. ) ;
#129 = CC_DESIGN_PERSON_AND_ORGANIZATION_ASSIGNMENT ( #200, #221, ( #147 ) ) ;
#130 = CONICAL_SURFACE ( 'NONE', #124, 0.9500000000000008438, 0.7853981633974336241 ) ;
#131 = ORIENTED_EDGE ( 'NONE', *, *, #165, .F. ) ;
#132 = PERSON_AND_ORGANIZATION ( #25, #5 ) ;
#133 = PRODUCT_DEFINITION ( 'UNKNOWN', '', #147, #92 ) ;
#134 = CARTESIAN_POINT ( 'NONE',  ( 1.501336975702547217E-13, -5.265981236333618470E-15, 43.00000000000000000 ) ) ;
#135 = DIRECTION ( 'NONE',  ( 3.491481338843133355E-15, -1.224646799147353207E-16, 1.000000000000000000 ) ) ;
#136 = CARTESIAN_POINT ( 'NONE',  ( 4.189777606611760026E-14, -1.469576158976823947E-15, 12.00000000000000000 ) ) ;
#137 = DIRECTION ( 'NONE',  ( -3.491481338843133355E-15, 1.224646799147353207E-16, -1.000000000000000000 ) ) ;
#138 = DIRECTION ( 'NONE',  ( -3.491481338843133355E-15, 1.224646799147353207E-16, -1.000000000000000000 ) ) ;
#139 = DIRECTION ( 'NONE',  ( -4.275831445896958607E-31, -1.000000000000000000, -1.224646799147353207E-16 ) ) ;
#140 = PERSON_AND_ORGANIZATION ( #25, #5 ) ;
#141 = AXIS2_PLACEMENT_3D ( 'NONE', #190, #13, #222 ) ;
#142 = ORIENTED_EDGE ( 'NONE', *, *, #143, .F. ) ;
#143 = EDGE_CURVE ( 'NONE', #154, #154, #97, .T. ) ;
#144 = ORIENTED_EDGE ( 'NONE', *, *, #68, .T. ) ;
#145 = CIRCLE ( 'NONE', #24, 1.224999999999998757 ) ;
#146 = ADVANCED_FACE ( 'NONE', ( #20, #72 ), #91, .T. ) ;
#147 = PRODUCT_DEFINITION_FORMATION_WITH_SPECIFIED_SOURCE ( 'ANY', '', #169, .NOT_KNOWN. ) ;
#148 = DIRECTION ( 'NONE',  ( 0.0000000000000000000, 1.000000000000000000, 0.0000000000000000000 ) ) ;
#149 = CC_DESIGN_DATE_AND_TIME_ASSIGNMENT ( #170, #206, ( #69 ) ) ;
#150 = DIRECTION ( 'NONE',  ( -3.144375419407735222E-31, -1.000000000000000000, -8.850629979473514640E-17 ) ) ;
#151 = FACE_BOUND ( 'NONE', #157, .T. ) ;
#152 = CARTESIAN_POINT ( 'NONE',  ( 4.189777606611760026E-14, 1.224999999999998757, 12.00000000000000000 ) ) ;
#153 = DIRECTION ( 'NONE',  ( 4.275831445896958607E-31, 1.000000000000000000, 1.224646799147353207E-16 ) ) ;
#154 = VERTEX_POINT ( 'NONE', #8 ) ;
#155 = ORIENTED_EDGE ( 'NONE', *, *, #66, .T. ) ;
#156 = PERSON_AND_ORGANIZATION_ROLE ( 'design_owner' ) ;
#157 = EDGE_LOOP ( 'NONE', ( #131 ) ) ;
#158 = AXIS2_PLACEMENT_3D ( 'NONE', #23, #161, #51 ) ;
#159 = EDGE_LOOP ( 'NONE', ( #128 ) ) ;
#160 = COORDINATED_UNIVERSAL_TIME_OFFSET ( 1, 0, .AHEAD. ) ;
#161 = DIRECTION ( 'NONE',  ( -3.491481338843133355E-15, 1.224646799147353207E-16, -1.000000000000000000 ) ) ;
#162 = APPROVAL_DATE_TIME ( #113, #198 ) ;
#163 = CALENDAR_DATE ( 2021, 7, 10 ) ;
#164 =( GEOMETRIC_REPRESENTATION_CONTEXT ( 3 ) GLOBAL_UNCERTAINTY_ASSIGNED_CONTEXT ( ( #82 ) ) GLOBAL_UNIT_ASSIGNED_CONTEXT ( ( #213, #127, #102 ) ) REPRESENTATION_CONTEXT ( 'NONE', 'WORKASPACE' ) );
#165 = EDGE_CURVE ( 'NONE', #37, #37, #14, .T. ) ;
#166 = VERTEX_POINT ( 'NONE', #152 ) ;
#167 = FACE_OUTER_BOUND ( 'NONE', #48, .T. ) ;
#168 = CC_DESIGN_APPROVAL ( #198, ( #69 ) ) ;
#169 = PRODUCT ( '38098', '38098', '', ( #176 ) ) ;
#170 = DATE_AND_TIME ( #15, #191 ) ;
#171 = DIRECTION ( 'NONE',  ( 0.0000000000000000000, 1.000000000000000000, 0.0000000000000000000 ) ) ;
#172 = DIRECTION ( 'NONE',  ( 4.275831445896958607E-31, 1.000000000000000000, 1.224646799147353454E-16 ) ) ;
#173 = CC_DESIGN_PERSON_AND_ORGANIZATION_ASSIGNMENT ( #215, #41, ( #133 ) ) ;
#174 = CARTESIAN_POINT ( 'NONE',  ( 2.569919707261090133E-15, 1.224999999999998757, 0.7360542583087689161 ) ) ;
#175 = DIRECTION ( 'NONE',  ( 1.000000000000000000, 0.0000000000000000000, 0.0000000000000000000 ) ) ;
#176 = MECHANICAL_CONTEXT ( 'NONE', #202, 'mechanical' ) ;
#177 = EDGE_LOOP ( 'NONE', ( #12 ) ) ;
#178 = LOCAL_TIME ( 15, 47, 43.00000000000000000, #42 ) ;
#179 = ORIENTED_EDGE ( 'NONE', *, *, #110, .F. ) ;
#180 = SECURITY_CLASSIFICATION_LEVEL ( 'unclassified' ) ;
#181 = AXIS2_PLACEMENT_3D ( 'NONE', #136, #108, #187 ) ;
#182 = VERTEX_POINT ( 'NONE', #107 ) ;
#183 = ADVANCED_FACE ( 'NONE', ( #207 ), #71, .F. ) ;
#184 = FACE_BOUND ( 'NONE', #177, .T. ) ;
#185 = CC_DESIGN_APPROVAL ( #77, ( #133 ) ) ;
#186 = FACE_OUTER_BOUND ( 'NONE', #60, .T. ) ;
#187 = DIRECTION ( 'NONE',  ( 0.0000000000000000000, 1.000000000000000000, 0.0000000000000000000 ) ) ;
#188 = ADVANCED_FACE ( 'NONE', ( #151, #6 ), #21, .T. ) ;
#189 = CARTESIAN_POINT ( 'NONE',  ( 4.204896164293145024E-14, -1.474879035170447591E-15, 12.04330127018921637 ) ) ;
#190 = CARTESIAN_POINT ( 'NONE',  ( 4.189777606611760026E-14, -1.469576158976823947E-15, 12.00000000000000000 ) ) ;
#191 = LOCAL_TIME ( 15, 47, 43.00000000000000000, #125 ) ;
#192 = COORDINATED_UNIVERSAL_TIME_OFFSET ( 1, 0, .AHEAD. ) ;
#193 = APPROVAL_ROLE ( '' ) ;
#194 = CC_DESIGN_DATE_AND_TIME_ASSIGNMENT ( #203, #76, ( #133 ) ) ;
#195 = AXIS2_PLACEMENT_3D ( 'NONE', #120, #2, #172 ) ;
#196 = ORIENTED_EDGE ( 'NONE', *, *, #66, .F. ) ;
#197 = EDGE_LOOP ( 'NONE', ( #144 ) ) ;
#198 = APPROVAL ( #56, 'UNSPECIFIED' ) ;
#199 = AXIS2_PLACEMENT_3D ( 'NONE', #19, #4, #54 ) ;
#200 = PERSON_AND_ORGANIZATION ( #25, #5 ) ;
#201 = CC_DESIGN_SECURITY_CLASSIFICATION ( #69, ( #147 ) ) ;
#202 = APPLICATION_CONTEXT ( 'configuration controlled 3d designs of mechanical parts and assemblies' ) ;
#203 = DATE_AND_TIME ( #163, #57 ) ;
#204 = ADVANCED_FACE ( 'NONE', ( #167, #184 ), #130, .T. ) ;
#205 = MANIFOLD_SOLID_BREP ( 'Corps-Déplacer/Copier1[1]', #219 ) ;
#206 = DATE_TIME_ROLE ( 'classification_date' ) ;
#207 = FACE_OUTER_BOUND ( 'NONE', #81, .T. ) ;
#208 = AXIS2_PLACEMENT_3D ( 'NONE', #53, #138, #38 ) ;
#209 = FACE_OUTER_BOUND ( 'NONE', #62, .T. ) ;
#210 = ADVANCED_BREP_SHAPE_REPRESENTATION ( '38098', ( #205, #59, #80 ), #164 ) ;
#211 = DIRECTION ( 'NONE',  ( 0.0000000000000000000, -1.000000000000000000, 0.0000000000000000000 ) ) ;
#212 = ADVANCED_FACE ( 'NONE', ( #52, #118 ), #106, .T. ) ;
#213 =( LENGTH_UNIT ( ) NAMED_UNIT ( * ) SI_UNIT ( .MILLI., .METRE. ) );
#214 = CIRCLE ( 'NONE', #61, 0.9500000000000008438 ) ;
#215 = PERSON_AND_ORGANIZATION ( #25, #5 ) ;
#216 = ADVANCED_FACE ( 'NONE', ( #90 ), #98, .T. ) ;
#217 = EDGE_LOOP ( 'NONE', ( #155 ) ) ;
#218 = DATE_AND_TIME ( #105, #65 ) ;
#219 = CLOSED_SHELL ( 'NONE', ( #115, #188, #212, #204, #183 ) ) ;
#220 = VERTEX_POINT ( 'NONE', #174 ) ;
#221 = PERSON_AND_ORGANIZATION_ROLE ( 'creator' ) ;
#222 = DIRECTION ( 'NONE',  ( 0.0000000000000000000, 1.000000000000000000, 0.0000000000000000000 ) ) ;
#223 = DIRECTION ( 'NONE',  ( 0.0000000000000000000, 0.0000000000000000000, 1.000000000000000000 ) ) ;
ENDSEC;
END-ISO-10303-21;
