ISO-10303-21;
HEADER;
FILE_DESCRIPTION (( 'STEP AP203' ),
    '1' );
FILE_NAME ('38097.step',
    '2021-10-07T13:47:43',
    ( '' ),
    ( '' ),
    'SwSTEP 2.0',
    'SolidWorks 2019',
    '' );
FILE_SCHEMA (( 'CONFIG_CONTROL_DESIGN' ));
ENDSEC;

DATA;
#1 = DIRECTION ( 'NONE',  ( -3.491481338843133355E-15, 1.224646799147353207E-16, -1.000000000000000000 ) ) ;
#2 = CIRCLE ( 'NONE', #157, 0.9500000000000008438 ) ;
#3 = CARTESIAN_POINT ( 'NONE',  ( 1.490862531686017501E-13, 1.249999999999995559, 42.69999999999998863 ) ) ;
#4 = PERSON_AND_ORGANIZATION ( #26, #212 ) ;
#5 = AXIS2_PLACEMENT_3D ( 'NONE', #54, #179, #191 ) ;
#6 = PERSON_AND_ORGANIZATION_ROLE ( 'classification_officer' ) ;
#7 = EDGE_CURVE ( 'NONE', #178, #178, #69, .T. ) ;
#8 = COORDINATED_UNIVERSAL_TIME_OFFSET ( 1, 0, .AHEAD. ) ;
#9 = APPROVAL_DATE_TIME ( #81, #99 ) ;
#10 = FACE_OUTER_BOUND ( 'NONE', #45, .T. ) ;
#11 = PRODUCT_RELATED_PRODUCT_CATEGORY ( 'detail', '', ( #64 ) ) ;
#12 = EDGE_LOOP ( 'NONE', ( #158 ) ) ;
#13 = FACE_OUTER_BOUND ( 'NONE', #142, .T. ) ;
#14 = CARTESIAN_POINT ( 'NONE',  ( 4.189777606611760026E-14, 8.061208831807450431E-33, 12.00000000000000000 ) ) ;
#15 = VERTEX_POINT ( 'NONE', #194 ) ;
#16 = FACE_OUTER_BOUND ( 'NONE', #12, .T. ) ;
#17 = DIRECTION ( 'NONE',  ( -4.275831445896958607E-31, -1.000000000000000000, -1.224646799147353207E-16 ) ) ;
#18 = CALENDAR_DATE ( 2021, 7, 10 ) ;
#19 = PERSON_AND_ORGANIZATION ( #26, #212 ) ;
#20 = PERSON_AND_ORGANIZATION_ROLE ( 'design_supplier' ) ;
#21 = DATE_TIME_ROLE ( 'creation_date' ) ;
#22 = AXIS2_PLACEMENT_3D ( 'NONE', #166, #135, #114 ) ;
#23 = PERSON_AND_ORGANIZATION_ROLE ( 'design_owner' ) ;
#24 = CONICAL_SURFACE ( 'NONE', #169, 0.9500000000000008438, 0.7853981633974336241 ) ;
#25 = ORIENTED_EDGE ( 'NONE', *, *, #195, .F. ) ;
#26 = PERSON ( 'UNSPECIFIED', 'UNSPECIFIED', 'UNSPECIFIED', ('UNSPECIFIED'), ('UNSPECIFIED'), ('UNSPECIFIED') ) ;
#27 = ORIENTED_EDGE ( 'NONE', *, *, #195, .T. ) ;
#28 = CARTESIAN_POINT ( 'NONE',  ( 4.295607510381470153E-14, -1.506696292332195368E-15, 12.30310889132455010 ) ) ;
#29 = FACE_OUTER_BOUND ( 'NONE', #85, .T. ) ;
#30 = FACE_OUTER_BOUND ( 'NONE', #156, .T. ) ;
#31 = CLOSED_SHELL ( 'NONE', ( #107, #92, #176 ) ) ;
#32 = DIRECTION ( 'NONE',  ( 0.0000000000000000000, 1.000000000000000000, 0.0000000000000000000 ) ) ;
#33 = CARTESIAN_POINT ( 'NONE',  ( 1.490862531686017501E-13, -5.229241832359196822E-15, 42.69999999999998863 ) ) ;
#34 = DIRECTION ( 'NONE',  ( 0.0000000000000000000, 1.000000000000000000, 0.0000000000000000000 ) ) ;
#35 = CC_DESIGN_APPROVAL ( #99, ( #42 ) ) ;
#36 = MECHANICAL_CONTEXT ( 'NONE', #70, 'mechanical' ) ;
#37 = CC_DESIGN_PERSON_AND_ORGANIZATION_ASSIGNMENT ( #112, #20, ( #57 ) ) ;
#38 = ADVANCED_FACE ( 'NONE', ( #30, #164 ), #24, .T. ) ;
#39 = APPROVAL_DATE_TIME ( #167, #126 ) ;
#40 = SHAPE_DEFINITION_REPRESENTATION ( #44, #128 ) ;
#41 = PERSON_AND_ORGANIZATION ( #26, #212 ) ;
#42 = SECURITY_CLASSIFICATION ( '', '', #98 ) ;
#43 = ADVANCED_FACE ( 'NONE', ( #10 ), #187, .F. ) ;
#44 = PRODUCT_DEFINITION_SHAPE ( 'NONE', 'NONE',  #120 ) ;
#45 = EDGE_LOOP ( 'NONE', ( #170 ) ) ;
#46 = CONICAL_SURFACE ( 'NONE', #134, 1.074999999999998401, 1.029744258676649649 ) ;
#47 = EDGE_LOOP ( 'NONE', ( #140 ) ) ;
#48 = DIRECTION ( 'NONE',  ( -3.491481338843133355E-15, 1.224646799147353207E-16, -1.000000000000000000 ) ) ;
#49 = ORIENTED_EDGE ( 'NONE', *, *, #87, .F. ) ;
#50 = DIRECTION ( 'NONE',  ( 0.0000000000000000000, 1.000000000000000000, 0.0000000000000000000 ) ) ;
#51 = DIRECTION ( 'NONE',  ( 3.491481338843133355E-15, -1.224646799147353207E-16, 1.000000000000000000 ) ) ;
#52 =( LENGTH_UNIT ( ) NAMED_UNIT ( * ) SI_UNIT ( .MILLI., .METRE. ) );
#53 = CARTESIAN_POINT ( 'NONE',  ( 4.189777606611760026E-14, -1.469576158976823947E-15, 12.00000000000000000 ) ) ;
#54 = CARTESIAN_POINT ( 'NONE',  ( 2.255235661474016117E-15, -7.910301863627414350E-17, 0.6459251654546335208 ) ) ;
#55 = FACE_OUTER_BOUND ( 'NONE', #200, .T. ) ;
#56 = CALENDAR_DATE ( 2021, 7, 10 ) ;
#57 = PRODUCT_DEFINITION_FORMATION_WITH_SPECIFIED_SOURCE ( 'ANY', '', #64, .NOT_KNOWN. ) ;
#58 = AXIS2_PLACEMENT_3D ( 'NONE', #33, #74, #32 ) ;
#59 = DATE_TIME_ROLE ( 'classification_date' ) ;
#60 = APPLICATION_PROTOCOL_DEFINITION ( 'international standard', 'config_control_design', 1994, #152 ) ;
#61 = EDGE_CURVE ( 'NONE', #132, #132, #2, .T. ) ;
#62 = DIRECTION ( 'NONE',  ( 4.275831445896959482E-31, 1.000000000000000000, 1.224646799147353207E-16 ) ) ;
#63 = ADVANCED_FACE ( 'NONE', ( #172, #13 ), #119, .T. ) ;
#64 = PRODUCT ( '38097', '38097', '', ( #36 ) ) ;
#65 = DIRECTION ( 'NONE',  ( -3.491481338843133355E-15, 1.224646799147353207E-16, -1.000000000000000000 ) ) ;
#66 = EDGE_LOOP ( 'NONE', ( #49 ) ) ;
#67 = AXIS2_PLACEMENT_3D ( 'NONE', #137, #1, #144 ) ;
#68 = DIRECTION ( 'NONE',  ( 3.491481338843133355E-15, -1.224646799147353207E-16, 1.000000000000000000 ) ) ;
#69 = CIRCLE ( 'NONE', #91, 1.249999999999996447 ) ;
#70 = APPLICATION_CONTEXT ( 'configuration controlled 3d designs of mechanical parts and assemblies' ) ;
#71 = CARTESIAN_POINT ( 'NONE',  ( 2.255235661474016511E-15, 1.074999999999998401, 0.6459251654546336319 ) ) ;
#72 = ADVANCED_FACE ( 'NONE', ( #202, #29 ), #106, .T. ) ;
#73 = DIRECTION ( 'NONE',  ( 3.491481338843133355E-15, -1.224646799147353207E-16, 1.000000000000000000 ) ) ;
#74 = DIRECTION ( 'NONE',  ( -3.491481338843133355E-15, 1.224646799147353207E-16, -1.000000000000000000 ) ) ;
#75 = APPROVAL_PERSON_ORGANIZATION ( #220, #99, #168 ) ;
#76 = CC_DESIGN_PERSON_AND_ORGANIZATION_ASSIGNMENT ( #41, #198, ( #120 ) ) ;
#77 = PERSON_AND_ORGANIZATION_ROLE ( 'creator' ) ;
#78 = CALENDAR_DATE ( 2021, 7, 10 ) ;
#79 = CC_DESIGN_APPROVAL ( #116, ( #120 ) ) ;
#80 = APPROVAL_ROLE ( '' ) ;
#81 = DATE_AND_TIME ( #18, #199 ) ;
#82 = ORIENTED_EDGE ( 'NONE', *, *, #61, .T. ) ;
#83 = EDGE_LOOP ( 'NONE', ( #25 ) ) ;
#84 = AXIS2_PLACEMENT_3D ( 'NONE', #14, #68, #147 ) ;
#85 = EDGE_LOOP ( 'NONE', ( #153 ) ) ;
#86 = UNCERTAINTY_MEASURE_WITH_UNIT (LENGTH_MEASURE( 1.000000000000000082E-05 ), #52, 'distance_accuracy_value', 'NONE');
#87 = EDGE_CURVE ( 'NONE', #15, #15, #101, .T. ) ;
#88 = DIRECTION ( 'NONE',  ( 4.275831445896958607E-31, 1.000000000000000000, 1.224646799147353207E-16 ) ) ;
#89 = EDGE_CURVE ( 'NONE', #162, #162, #150, .T. ) ;
#90 = PLANE ( 'NONE',  #183 ) ;
#91 = AXIS2_PLACEMENT_3D ( 'NONE', #28, #94, #50 ) ;
#92 = ADVANCED_FACE ( 'NONE', ( #55, #130 ), #93, .T. ) ;
#93 = CYLINDRICAL_SURFACE ( 'NONE', #122, 1.074999999999998401 ) ;
#94 = DIRECTION ( 'NONE',  ( -3.491481338843133355E-15, 1.224646799147353207E-16, -1.000000000000000000 ) ) ;
#95 = CARTESIAN_POINT ( 'NONE',  ( 1.501336975702547217E-13, 0.9499999999999955147, 43.00000000000000000 ) ) ;
#96 = CALENDAR_DATE ( 2021, 7, 10 ) ;
#97 = PERSON_AND_ORGANIZATION ( #26, #212 ) ;
#98 = SECURITY_CLASSIFICATION_LEVEL ( 'unclassified' ) ;
#99 = APPROVAL ( #185, 'UNSPECIFIED' ) ;
#100 = LOCAL_TIME ( 15, 47, 43.00000000000000000, #180 ) ;
#101 = CIRCLE ( 'NONE', #67, 1.074999999999998401 ) ;
#102 = CARTESIAN_POINT ( 'NONE',  ( 1.501336975702547217E-13, -5.265981236333618470E-15, 43.00000000000000000 ) ) ;
#103 = EDGE_LOOP ( 'NONE', ( #121 ) ) ;
#104 = CC_DESIGN_SECURITY_CLASSIFICATION ( #42, ( #57 ) ) ;
#105 = DIRECTION ( 'NONE',  ( 0.0000000000000000000, 1.000000000000000000, 0.0000000000000000000 ) ) ;
#106 = CYLINDRICAL_SURFACE ( 'NONE', #145, 1.249999999999998446 ) ;
#107 = ADVANCED_FACE ( 'NONE', ( #16 ), #46, .T. ) ;
#108 = CC_DESIGN_APPROVAL ( #126, ( #57 ) ) ;
#109 = APPLICATION_PROTOCOL_DEFINITION ( 'international standard', 'config_control_design', 1994, #70 ) ;
#110 = DIRECTION ( 'NONE',  ( -3.491481338843133355E-15, 1.224646799147353207E-16, -1.000000000000000000 ) ) ;
#111 = FACE_OUTER_BOUND ( 'NONE', #83, .T. ) ;
#112 = PERSON_AND_ORGANIZATION ( #26, #212 ) ;
#113 = DATE_AND_TIME ( #96, #100 ) ;
#114 = DIRECTION ( 'NONE',  ( 1.000000000000000000, 0.0000000000000000000, 0.0000000000000000000 ) ) ;
#115 = AXIS2_PLACEMENT_3D ( 'NONE', #117, #48, #88 ) ;
#116 = APPROVAL ( #182, 'UNSPECIFIED' ) ;
#117 = CARTESIAN_POINT ( 'NONE',  ( 1.501336975702547217E-13, 7.123858967643751109E-33, 43.00000000000000000 ) ) ;
#118 = EDGE_LOOP ( 'NONE', ( #82 ) ) ;
#119 = CONICAL_SURFACE ( 'NONE', #196, 1.249999999999996447, 0.5235987755982979275 ) ;
#120 = PRODUCT_DEFINITION ( 'UNKNOWN', '', #57, #159 ) ;
#121 = ORIENTED_EDGE ( 'NONE', *, *, #7, .F. ) ;
#122 = AXIS2_PLACEMENT_3D ( 'NONE', #208, #110, #177 ) ;
#123 = MANIFOLD_SOLID_BREP ( 'Corps-Déplacer/Copier1[2]', #31 ) ;
#124 = DIRECTION ( 'NONE',  ( 0.0000000000000000000, 1.000000000000000000, 0.0000000000000000000 ) ) ;
#125 = CARTESIAN_POINT ( 'NONE',  ( 4.295607510381470153E-14, 1.249999999999994893, 12.30310889132455010 ) ) ;
#126 = APPROVAL ( #209, 'UNSPECIFIED' ) ;
#127 = MANIFOLD_SOLID_BREP ( 'Corps-Déplacer/Copier1[1]', #129 ) ;
#128 = ADVANCED_BREP_SHAPE_REPRESENTATION ( '38097', ( #127, #123, #22 ), #143 ) ;
#129 = CLOSED_SHELL ( 'NONE', ( #190, #63, #72, #38, #43 ) ) ;
#130 = FACE_OUTER_BOUND ( 'NONE', #188, .T. ) ;
#131 = VERTEX_POINT ( 'NONE', #189 ) ;
#132 = VERTEX_POINT ( 'NONE', #95 ) ;
#133 = CALENDAR_DATE ( 2021, 7, 10 ) ;
#134 = AXIS2_PLACEMENT_3D ( 'NONE', #193, #51, #222 ) ;
#135 = DIRECTION ( 'NONE',  ( 0.0000000000000000000, 0.0000000000000000000, 1.000000000000000000 ) ) ;
#136 = COORDINATED_UNIVERSAL_TIME_OFFSET ( 1, 0, .AHEAD. ) ;
#137 = CARTESIAN_POINT ( 'NONE',  ( 4.189777606611760026E-14, -1.469576158976823947E-15, 12.00000000000000000 ) ) ;
#138 = CC_DESIGN_DATE_AND_TIME_ASSIGNMENT ( #149, #59, ( #42 ) ) ;
#139 = ORIENTED_EDGE ( 'NONE', *, *, #89, .F. ) ;
#140 = ORIENTED_EDGE ( 'NONE', *, *, #87, .T. ) ;
#141 = CARTESIAN_POINT ( 'NONE',  ( 4.295607510381470153E-14, -1.506696292332195368E-15, 12.30310889132455010 ) ) ;
#142 = EDGE_LOOP ( 'NONE', ( #216 ) ) ;
#143 =( GEOMETRIC_REPRESENTATION_CONTEXT ( 3 ) GLOBAL_UNCERTAINTY_ASSIGNED_CONTEXT ( ( #86 ) ) GLOBAL_UNIT_ASSIGNED_CONTEXT ( ( #52, #146, #174 ) ) REPRESENTATION_CONTEXT ( 'NONE', 'WORKASPACE' ) );
#144 = DIRECTION ( 'NONE',  ( 0.0000000000000000000, 1.000000000000000000, 0.0000000000000000000 ) ) ;
#145 = AXIS2_PLACEMENT_3D ( 'NONE', #173, #214, #62 ) ;
#146 =( NAMED_UNIT ( * ) PLANE_ANGLE_UNIT ( ) SI_UNIT ( $, .RADIAN. ) );
#147 = DIRECTION ( 'NONE',  ( -4.275831445896958607E-31, -1.000000000000000000, -1.224646799147353207E-16 ) ) ;
#148 = APPROVAL_DATE_TIME ( #113, #116 ) ;
#149 = DATE_AND_TIME ( #78, #171 ) ;
#150 = CIRCLE ( 'NONE', #5, 1.074999999999998401 ) ;
#151 = COORDINATED_UNIVERSAL_TIME_OFFSET ( 1, 0, .AHEAD. ) ;
#152 = APPLICATION_CONTEXT ( 'configuration controlled 3d designs of mechanical parts and assemblies' ) ;
#153 = ORIENTED_EDGE ( 'NONE', *, *, #206, .T. ) ;
#154 = DIRECTION ( 'NONE',  ( -3.491481338843133355E-15, 1.224646799147353207E-16, -1.000000000000000000 ) ) ;
#155 = CC_DESIGN_PERSON_AND_ORGANIZATION_ASSIGNMENT ( #97, #6, ( #42 ) ) ;
#156 = EDGE_LOOP ( 'NONE', ( #201 ) ) ;
#157 = AXIS2_PLACEMENT_3D ( 'NONE', #102, #65, #105 ) ;
#158 = ORIENTED_EDGE ( 'NONE', *, *, #89, .T. ) ;
#159 = DESIGN_CONTEXT ( 'detailed design', #152, 'design' ) ;
#160 = CC_DESIGN_PERSON_AND_ORGANIZATION_ASSIGNMENT ( #19, #23, ( #64 ) ) ;
#161 = LOCAL_TIME ( 15, 47, 43.00000000000000000, #136 ) ;
#162 = VERTEX_POINT ( 'NONE', #71 ) ;
#163 = VERTEX_POINT ( 'NONE', #3 ) ;
#164 = FACE_BOUND ( 'NONE', #118, .T. ) ;
#165 = PERSON_AND_ORGANIZATION ( #26, #212 ) ;
#166 = CARTESIAN_POINT ( 'NONE',  ( 0.0000000000000000000, 0.0000000000000000000, 0.0000000000000000000 ) ) ;
#167 = DATE_AND_TIME ( #133, #207 ) ;
#168 = APPROVAL_ROLE ( '' ) ;
#169 = AXIS2_PLACEMENT_3D ( 'NONE', #186, #154, #124 ) ;
#170 = ORIENTED_EDGE ( 'NONE', *, *, #61, .F. ) ;
#171 = LOCAL_TIME ( 15, 47, 43.00000000000000000, #151 ) ;
#172 = FACE_BOUND ( 'NONE', #66, .T. ) ;
#173 = CARTESIAN_POINT ( 'NONE',  ( 0.0000000000000000000, 0.0000000000000000000, 0.0000000000000000000 ) ) ;
#174 =( NAMED_UNIT ( * ) SI_UNIT ( $, .STERADIAN. ) SOLID_ANGLE_UNIT ( ) );
#175 = APPROVAL_PERSON_ORGANIZATION ( #165, #116, #197 ) ;
#176 = ADVANCED_FACE ( 'NONE', ( #111 ), #90, .T. ) ;
#177 = DIRECTION ( 'NONE',  ( 4.275831445896958607E-31, 1.000000000000000000, 1.224646799147353454E-16 ) ) ;
#178 = VERTEX_POINT ( 'NONE', #125 ) ;
#179 = DIRECTION ( 'NONE',  ( -3.491481338843133355E-15, 1.224646799147353207E-16, -1.000000000000000000 ) ) ;
#180 = COORDINATED_UNIVERSAL_TIME_OFFSET ( 1, 0, .AHEAD. ) ;
#181 = DATE_AND_TIME ( #56, #161 ) ;
#182 = APPROVAL_STATUS ( 'not_yet_approved' ) ;
#183 = AXIS2_PLACEMENT_3D ( 'NONE', #219, #73, #17 ) ;
#184 = CC_DESIGN_DATE_AND_TIME_ASSIGNMENT ( #181, #21, ( #120 ) ) ;
#185 = APPROVAL_STATUS ( 'not_yet_approved' ) ;
#186 = CARTESIAN_POINT ( 'NONE',  ( 1.501336975702547217E-13, -5.265981236333618470E-15, 43.00000000000000000 ) ) ;
#187 = PLANE ( 'NONE',  #115 ) ;
#188 = EDGE_LOOP ( 'NONE', ( #27 ) ) ;
#189 = CARTESIAN_POINT ( 'NONE',  ( 4.189777606611760026E-14, 1.074999999999997069, 12.00000000000000000 ) ) ;
#190 = ADVANCED_FACE ( 'NONE', ( #204 ), #205, .F. ) ;
#191 = DIRECTION ( 'NONE',  ( 3.583125477929746611E-31, 1.000000000000000000, 1.008560160451633577E-16 ) ) ;
#192 = AXIS2_PLACEMENT_3D ( 'NONE', #53, #223, #34 ) ;
#193 = CARTESIAN_POINT ( 'NONE',  ( 2.255235661474016117E-15, -7.910301863627414350E-17, 0.6459251654546335208 ) ) ;
#194 = CARTESIAN_POINT ( 'NONE',  ( 4.189777606611760026E-14, 1.074999999999997069, 12.00000000000000000 ) ) ;
#195 = EDGE_CURVE ( 'NONE', #131, #131, #203, .T. ) ;
#196 = AXIS2_PLACEMENT_3D ( 'NONE', #141, #215, #218 ) ;
#197 = APPROVAL_ROLE ( '' ) ;
#198 = PERSON_AND_ORGANIZATION_ROLE ( 'creator' ) ;
#199 = LOCAL_TIME ( 15, 47, 43.00000000000000000, #8 ) ;
#200 = EDGE_LOOP ( 'NONE', ( #139 ) ) ;
#201 = ORIENTED_EDGE ( 'NONE', *, *, #206, .F. ) ;
#202 = FACE_OUTER_BOUND ( 'NONE', #103, .T. ) ;
#203 = CIRCLE ( 'NONE', #192, 1.074999999999998401 ) ;
#204 = FACE_OUTER_BOUND ( 'NONE', #47, .T. ) ;
#205 = PLANE ( 'NONE',  #84 ) ;
#206 = EDGE_CURVE ( 'NONE', #163, #163, #221, .T. ) ;
#207 = LOCAL_TIME ( 15, 47, 43.00000000000000000, #210 ) ;
#208 = CARTESIAN_POINT ( 'NONE',  ( 0.0000000000000000000, 0.0000000000000000000, 0.0000000000000000000 ) ) ;
#209 = APPROVAL_STATUS ( 'not_yet_approved' ) ;
#210 = COORDINATED_UNIVERSAL_TIME_OFFSET ( 1, 0, .AHEAD. ) ;
#211 = PERSON_AND_ORGANIZATION ( #26, #212 ) ;
#212 = ORGANIZATION ( 'UNSPECIFIED', 'UNSPECIFIED', '' ) ;
#213 = CC_DESIGN_PERSON_AND_ORGANIZATION_ASSIGNMENT ( #4, #77, ( #57 ) ) ;
#214 = DIRECTION ( 'NONE',  ( -3.491481338843133355E-15, 1.224646799147353207E-16, -1.000000000000000000 ) ) ;
#215 = DIRECTION ( 'NONE',  ( 3.491481338843133355E-15, -1.224646799147353207E-16, 1.000000000000000000 ) ) ;
#216 = ORIENTED_EDGE ( 'NONE', *, *, #7, .T. ) ;
#217 = APPROVAL_PERSON_ORGANIZATION ( #211, #126, #80 ) ;
#218 = DIRECTION ( 'NONE',  ( 0.0000000000000000000, -1.000000000000000000, 0.0000000000000000000 ) ) ;
#219 = CARTESIAN_POINT ( 'NONE',  ( 4.189777606611760026E-14, 8.061208831807450431E-33, 12.00000000000000000 ) ) ;
#220 = PERSON_AND_ORGANIZATION ( #26, #212 ) ;
#221 = CIRCLE ( 'NONE', #58, 1.250000000000000666 ) ;
#222 = DIRECTION ( 'NONE',  ( -3.583125477929746611E-31, -1.000000000000000000, -1.008560160451633577E-16 ) ) ;
#223 = DIRECTION ( 'NONE',  ( -3.491481338843133355E-15, 1.224646799147353207E-16, -1.000000000000000000 ) ) ;
ENDSEC;
END-ISO-10303-21;
