ISO-10303-21;
HEADER;
FILE_DESCRIPTION (( 'STEP AP203' ),
    '1' );
FILE_NAME ('38096.step',
    '2021-10-07T13:47:42',
    ( '' ),
    ( '' ),
    'SwSTEP 2.0',
    'SolidWorks 2019',
    '' );
FILE_SCHEMA (( 'CONFIG_CONTROL_DESIGN' ));
ENDSEC;

DATA;
#1 = DATE_AND_TIME ( #155, #150 ) ;
#2 = EDGE_CURVE ( 'NONE', #162, #162, #194, .T. ) ;
#3 = CARTESIAN_POINT ( 'NONE',  ( 4.189777606611760026E-14, 1.004999999999991900, 12.00000000000000000 ) ) ;
#4 = CIRCLE ( 'NONE', #35, 1.249999999999996891 ) ;
#5 = DIRECTION ( 'NONE',  ( 4.275831445896959482E-31, 1.000000000000000000, 1.224646799147353207E-16 ) ) ;
#6 = CARTESIAN_POINT ( 'NONE',  ( 1.490862531686017501E-13, 1.249999999999995559, 42.69999999999998863 ) ) ;
#7 = DIRECTION ( 'NONE',  ( 0.0000000000000000000, 1.000000000000000000, 0.0000000000000000000 ) ) ;
#8 = FACE_OUTER_BOUND ( 'NONE', #82, .T. ) ;
#9 = FACE_BOUND ( 'NONE', #64, .T. ) ;
#10 = EDGE_LOOP ( 'NONE', ( #80 ) ) ;
#11 = ORIENTED_EDGE ( 'NONE', *, *, #218, .F. ) ;
#12 = APPROVAL ( #220, 'UNSPECIFIED' ) ;
#13 = APPLICATION_PROTOCOL_DEFINITION ( 'international standard', 'config_control_design', 1994, #21 ) ;
#14 = EDGE_LOOP ( 'NONE', ( #216 ) ) ;
#15 = APPROVAL_DATE_TIME ( #198, #12 ) ;
#16 = DIRECTION ( 'NONE',  ( -3.491481338843133355E-15, 1.224646799147353207E-16, -1.000000000000000000 ) ) ;
#17 = PERSON_AND_ORGANIZATION_ROLE ( 'design_supplier' ) ;
#18 = LOCAL_TIME ( 15, 47, 42.00000000000000000, #49 ) ;
#19 = ADVANCED_FACE ( 'NONE', ( #8, #102 ), #85, .T. ) ;
#20 = DIRECTION ( 'NONE',  ( -3.491481338843133355E-15, 1.224646799147353207E-16, -1.000000000000000000 ) ) ;
#21 = APPLICATION_CONTEXT ( 'configuration controlled 3d designs of mechanical parts and assemblies' ) ;
#22 = CARTESIAN_POINT ( 'NONE',  ( 2.108383106773371926E-15, -7.395212439949313096E-17, 0.6038649221227008201 ) ) ;
#23 = FACE_OUTER_BOUND ( 'NONE', #202, .T. ) ;
#24 = DIRECTION ( 'NONE',  ( 4.275831445896958607E-31, 1.000000000000000000, 1.224646799147353207E-16 ) ) ;
#25 = PLANE ( 'NONE',  #90 ) ;
#26 = AXIS2_PLACEMENT_3D ( 'NONE', #168, #95, #77 ) ;
#27 = CC_DESIGN_PERSON_AND_ORGANIZATION_ASSIGNMENT ( #96, #151, ( #179 ) ) ;
#28 =( NAMED_UNIT ( * ) PLANE_ANGLE_UNIT ( ) SI_UNIT ( $, .RADIAN. ) );
#29 = APPLICATION_PROTOCOL_DEFINITION ( 'international standard', 'config_control_design', 1994, #72 ) ;
#30 = EDGE_LOOP ( 'NONE', ( #78 ) ) ;
#31 = APPROVAL_ROLE ( '' ) ;
#32 = APPROVAL ( #67, 'UNSPECIFIED' ) ;
#33 = CARTESIAN_POINT ( 'NONE',  ( 2.108383106773372320E-15, 1.004999999999993454, 0.6038649221227009312 ) ) ;
#34 = ORIENTED_EDGE ( 'NONE', *, *, #157, .F. ) ;
#35 = AXIS2_PLACEMENT_3D ( 'NONE', #92, #88, #160 ) ;
#36 = APPROVAL_DATE_TIME ( #1, #32 ) ;
#37 = CIRCLE ( 'NONE', #106, 1.004999999999993454 ) ;
#38 = PRODUCT_DEFINITION_SHAPE ( 'NONE', 'NONE',  #187 ) ;
#39 = DIRECTION ( 'NONE',  ( -3.491481338843133355E-15, 1.224646799147353207E-16, -1.000000000000000000 ) ) ;
#40 = VERTEX_POINT ( 'NONE', #33 ) ;
#41 = FACE_OUTER_BOUND ( 'NONE', #48, .T. ) ;
#42 = APPROVAL_PERSON_ORGANIZATION ( #116, #32, #31 ) ;
#43 = DIRECTION ( 'NONE',  ( -4.275831445896958607E-31, -1.000000000000000000, -1.224646799147353207E-16 ) ) ;
#44 = DIRECTION ( 'NONE',  ( 3.491481338843133355E-15, -1.224646799147353207E-16, 1.000000000000000000 ) ) ;
#45 = DATE_AND_TIME ( #63, #210 ) ;
#46 = ORIENTED_EDGE ( 'NONE', *, *, #120, .T. ) ;
#47 = PERSON_AND_ORGANIZATION ( #188, #121 ) ;
#48 = EDGE_LOOP ( 'NONE', ( #145 ) ) ;
#49 = COORDINATED_UNIVERSAL_TIME_OFFSET ( 1, 0, .AHEAD. ) ;
#50 = MECHANICAL_CONTEXT ( 'NONE', #21, 'mechanical' ) ;
#51 = EDGE_CURVE ( 'NONE', #182, #182, #199, .T. ) ;
#52 = CC_DESIGN_PERSON_AND_ORGANIZATION_ASSIGNMENT ( #200, #204, ( #140 ) ) ;
#53 = FACE_BOUND ( 'NONE', #147, .T. ) ;
#54 = AXIS2_PLACEMENT_3D ( 'NONE', #212, #103, #176 ) ;
#55 = CC_DESIGN_APPROVAL ( #177, ( #179 ) ) ;
#56 = VERTEX_POINT ( 'NONE', #123 ) ;
#57 = DIRECTION ( 'NONE',  ( -3.491481338843133355E-15, 1.224646799147353207E-16, -1.000000000000000000 ) ) ;
#58 = CARTESIAN_POINT ( 'NONE',  ( 4.189777606611760026E-14, 7.536292907875763593E-33, 12.00000000000000000 ) ) ;
#59 = CLOSED_SHELL ( 'NONE', ( #136, #19, #68 ) ) ;
#60 = DESIGN_CONTEXT ( 'detailed design', #72, 'design' ) ;
#61 = APPROVAL_PERSON_ORGANIZATION ( #47, #177, #184 ) ;
#62 = DIRECTION ( 'NONE',  ( -4.275831445896958607E-31, -1.000000000000000000, -1.224646799147353207E-16 ) ) ;
#63 = CALENDAR_DATE ( 2021, 7, 10 ) ;
#64 = EDGE_LOOP ( 'NONE', ( #110 ) ) ;
#65 = EDGE_LOOP ( 'NONE', ( #135 ) ) ;
#66 = AXIS2_PLACEMENT_3D ( 'NONE', #169, #16, #86 ) ;
#67 = APPROVAL_STATUS ( 'not_yet_approved' ) ;
#68 = ADVANCED_FACE ( 'NONE', ( #175 ), #193, .T. ) ;
#69 = DATE_TIME_ROLE ( 'creation_date' ) ;
#70 = SECURITY_CLASSIFICATION_LEVEL ( 'unclassified' ) ;
#71 = ADVANCED_FACE ( 'NONE', ( #213 ), #25, .F. ) ;
#72 = APPLICATION_CONTEXT ( 'configuration controlled 3d designs of mechanical parts and assemblies' ) ;
#73 = VERTEX_POINT ( 'NONE', #211 ) ;
#74 = FACE_OUTER_BOUND ( 'NONE', #14, .T. ) ;
#75 = CARTESIAN_POINT ( 'NONE',  ( 4.189777606611760026E-14, 7.536292907875763593E-33, 12.00000000000000000 ) ) ;
#76 = DIRECTION ( 'NONE',  ( -3.491481338843133355E-15, 1.224646799147353207E-16, -1.000000000000000000 ) ) ;
#77 = DIRECTION ( 'NONE',  ( 1.000000000000000000, 0.0000000000000000000, 0.0000000000000000000 ) ) ;
#78 = ORIENTED_EDGE ( 'NONE', *, *, #51, .F. ) ;
#79 = PERSON_AND_ORGANIZATION ( #188, #121 ) ;
#80 = ORIENTED_EDGE ( 'NONE', *, *, #157, .T. ) ;
#81 = DATE_AND_TIME ( #167, #18 ) ;
#82 = EDGE_LOOP ( 'NONE', ( #11 ) ) ;
#83 = AXIS2_PLACEMENT_3D ( 'NONE', #174, #181, #5 ) ;
#84 = CC_DESIGN_DATE_AND_TIME_ASSIGNMENT ( #81, #114, ( #140 ) ) ;
#85 = CYLINDRICAL_SURFACE ( 'NONE', #83, 1.004999999999993454 ) ;
#86 = DIRECTION ( 'NONE',  ( 0.0000000000000000000, 1.000000000000000000, 0.0000000000000000000 ) ) ;
#87 = AXIS2_PLACEMENT_3D ( 'NONE', #22, #109, #122 ) ;
#88 = DIRECTION ( 'NONE',  ( -3.491481338843133355E-15, 1.224646799147353207E-16, -1.000000000000000000 ) ) ;
#89 = DIRECTION ( 'NONE',  ( -3.491481338843133355E-15, 1.224646799147353207E-16, -1.000000000000000000 ) ) ;
#90 = AXIS2_PLACEMENT_3D ( 'NONE', #142, #57, #24 ) ;
#91 = DIRECTION ( 'NONE',  ( -3.832696406740793034E-31, -1.000000000000000000, -1.078808131826379655E-16 ) ) ;
#92 = CARTESIAN_POINT ( 'NONE',  ( 4.337939471889359001E-14, -1.521544345674345592E-15, 12.42435244785438542 ) ) ;
#93 = CARTESIAN_POINT ( 'NONE',  ( 1.501336975702547217E-13, 0.9499999999999955147, 43.00000000000000000 ) ) ;
#94 =( GEOMETRIC_REPRESENTATION_CONTEXT ( 3 ) GLOBAL_UNCERTAINTY_ASSIGNED_CONTEXT ( ( #115 ) ) GLOBAL_UNIT_ASSIGNED_CONTEXT ( ( #215, #28, #99 ) ) REPRESENTATION_CONTEXT ( 'NONE', 'WORKASPACE' ) );
#95 = DIRECTION ( 'NONE',  ( 0.0000000000000000000, 0.0000000000000000000, 1.000000000000000000 ) ) ;
#96 = PERSON_AND_ORGANIZATION ( #188, #121 ) ;
#97 = PRODUCT_RELATED_PRODUCT_CATEGORY ( 'detail', '', ( #206 ) ) ;
#98 = AXIS2_PLACEMENT_3D ( 'NONE', #125, #44, #91 ) ;
#99 =( NAMED_UNIT ( * ) SI_UNIT ( $, .STERADIAN. ) SOLID_ANGLE_UNIT ( ) );
#100 = DATE_AND_TIME ( #148, #208 ) ;
#101 = AXIS2_PLACEMENT_3D ( 'NONE', #197, #20, #7 ) ;
#102 = FACE_OUTER_BOUND ( 'NONE', #10, .T. ) ;
#103 = DIRECTION ( 'NONE',  ( -3.491481338843133355E-15, 1.224646799147353207E-16, -1.000000000000000000 ) ) ;
#104 = CARTESIAN_POINT ( 'NONE',  ( 0.0000000000000000000, 0.0000000000000000000, 0.0000000000000000000 ) ) ;
#105 = DIRECTION ( 'NONE',  ( 4.275831445896959482E-31, 1.000000000000000000, 1.224646799147353454E-16 ) ) ;
#106 = AXIS2_PLACEMENT_3D ( 'NONE', #108, #39, #191 ) ;
#107 = EDGE_CURVE ( 'NONE', #164, #164, #111, .T. ) ;
#108 = CARTESIAN_POINT ( 'NONE',  ( 4.189777606611760026E-14, -1.469576158976823947E-15, 12.00000000000000000 ) ) ;
#109 = DIRECTION ( 'NONE',  ( -3.491481338843133355E-15, 1.224646799147353207E-16, -1.000000000000000000 ) ) ;
#110 = ORIENTED_EDGE ( 'NONE', *, *, #51, .T. ) ;
#111 = CIRCLE ( 'NONE', #54, 1.004999999999993454 ) ;
#112 = COORDINATED_UNIVERSAL_TIME_OFFSET ( 1, 0, .AHEAD. ) ;
#113 = CC_DESIGN_DATE_AND_TIME_ASSIGNMENT ( #100, #69, ( #187 ) ) ;
#114 = DATE_TIME_ROLE ( 'classification_date' ) ;
#115 = UNCERTAINTY_MEASURE_WITH_UNIT (LENGTH_MEASURE( 1.000000000000000082E-05 ), #215, 'distance_accuracy_value', 'NONE');
#116 = PERSON_AND_ORGANIZATION ( #188, #121 ) ;
#117 = LOCAL_TIME ( 15, 47, 42.00000000000000000, #112 ) ;
#118 = PERSON_AND_ORGANIZATION ( #188, #121 ) ;
#119 = ADVANCED_FACE ( 'NONE', ( #74, #9 ), #223, .T. ) ;
#120 = EDGE_CURVE ( 'NONE', #73, #73, #4, .T. ) ;
#121 = ORGANIZATION ( 'UNSPECIFIED', 'UNSPECIFIED', '' ) ;
#122 = DIRECTION ( 'NONE',  ( 3.832696406740793034E-31, 1.000000000000000000, 1.078808131826379655E-16 ) ) ;
#123 = CARTESIAN_POINT ( 'NONE',  ( 4.189777606611760026E-14, 1.004999999999991900, 12.00000000000000000 ) ) ;
#124 = MANIFOLD_SOLID_BREP ( 'Corps-Déplacer/Copier1[1]', #178 ) ;
#125 = CARTESIAN_POINT ( 'NONE',  ( 2.108383106773371926E-15, -7.395212439949313096E-17, 0.6038649221227008201 ) ) ;
#126 = CYLINDRICAL_SURFACE ( 'NONE', #133, 1.249999999999998890 ) ;
#127 = CONICAL_SURFACE ( 'NONE', #98, 1.004999999999993454, 1.029744258676649649 ) ;
#128 = DIRECTION ( 'NONE',  ( 0.0000000000000000000, -1.000000000000000000, 0.0000000000000000000 ) ) ;
#129 = APPROVAL_DATE_TIME ( #45, #177 ) ;
#130 = COORDINATED_UNIVERSAL_TIME_OFFSET ( 1, 0, .AHEAD. ) ;
#131 = CC_DESIGN_PERSON_AND_ORGANIZATION_ASSIGNMENT ( #118, #185, ( #187 ) ) ;
#132 = ORIENTED_EDGE ( 'NONE', *, *, #120, .F. ) ;
#133 = AXIS2_PLACEMENT_3D ( 'NONE', #104, #76, #105 ) ;
#134 = PERSON_AND_ORGANIZATION_ROLE ( 'design_owner' ) ;
#135 = ORIENTED_EDGE ( 'NONE', *, *, #218, .T. ) ;
#136 = ADVANCED_FACE ( 'NONE', ( #209 ), #127, .T. ) ;
#137 = CC_DESIGN_SECURITY_CLASSIFICATION ( #140, ( #179 ) ) ;
#138 = FACE_OUTER_BOUND ( 'NONE', #166, .T. ) ;
#139 = APPROVAL_PERSON_ORGANIZATION ( #79, #12, #146 ) ;
#140 = SECURITY_CLASSIFICATION ( '', '', #70 ) ;
#141 = CARTESIAN_POINT ( 'NONE',  ( 4.337939471889359001E-14, -1.521544345674345592E-15, 12.42435244785438542 ) ) ;
#142 = CARTESIAN_POINT ( 'NONE',  ( 1.501336975702547217E-13, 7.123858967643751109E-33, 43.00000000000000000 ) ) ;
#143 = CARTESIAN_POINT ( 'NONE',  ( 1.501336975702547217E-13, -5.265981236333618470E-15, 43.00000000000000000 ) ) ;
#144 = CALENDAR_DATE ( 2021, 7, 10 ) ;
#145 = ORIENTED_EDGE ( 'NONE', *, *, #2, .T. ) ;
#146 = APPROVAL_ROLE ( '' ) ;
#147 = EDGE_LOOP ( 'NONE', ( #201 ) ) ;
#148 = CALENDAR_DATE ( 2021, 7, 10 ) ;
#149 = EDGE_LOOP ( 'NONE', ( #34 ) ) ;
#150 = LOCAL_TIME ( 15, 47, 42.00000000000000000, #173 ) ;
#151 = PERSON_AND_ORGANIZATION_ROLE ( 'creator' ) ;
#152 = EDGE_LOOP ( 'NONE', ( #46 ) ) ;
#153 = AXIS2_PLACEMENT_3D ( 'NONE', #75, #192, #62 ) ;
#154 = ADVANCED_FACE ( 'NONE', ( #23 ), #214, .F. ) ;
#155 = CALENDAR_DATE ( 2021, 7, 10 ) ;
#156 = CONICAL_SURFACE ( 'NONE', #165, 1.249999999999996891, 0.5235987755982948189 ) ;
#157 = EDGE_CURVE ( 'NONE', #56, #56, #37, .T. ) ;
#158 = DIRECTION ( 'NONE',  ( 3.491481338843133355E-15, -1.224646799147353207E-16, 1.000000000000000000 ) ) ;
#159 = ADVANCED_BREP_SHAPE_REPRESENTATION ( '38096', ( #124, #190, #26 ), #94 ) ;
#160 = DIRECTION ( 'NONE',  ( 0.0000000000000000000, 1.000000000000000000, 0.0000000000000000000 ) ) ;
#161 = ADVANCED_FACE ( 'NONE', ( #138, #41 ), #126, .T. ) ;
#162 = VERTEX_POINT ( 'NONE', #6 ) ;
#163 = DIRECTION ( 'NONE',  ( 3.491481338843133355E-15, -1.224646799147353207E-16, 1.000000000000000000 ) ) ;
#164 = VERTEX_POINT ( 'NONE', #3 ) ;
#165 = AXIS2_PLACEMENT_3D ( 'NONE', #141, #158, #128 ) ;
#166 = EDGE_LOOP ( 'NONE', ( #132 ) ) ;
#167 = CALENDAR_DATE ( 2021, 7, 10 ) ;
#168 = CARTESIAN_POINT ( 'NONE',  ( 0.0000000000000000000, 0.0000000000000000000, 0.0000000000000000000 ) ) ;
#169 = CARTESIAN_POINT ( 'NONE',  ( 1.490862531686017501E-13, -5.229241832359196822E-15, 42.69999999999998863 ) ) ;
#170 = CC_DESIGN_APPROVAL ( #12, ( #187 ) ) ;
#171 = PERSON_AND_ORGANIZATION ( #188, #121 ) ;
#172 = APPROVAL_STATUS ( 'not_yet_approved' ) ;
#173 = COORDINATED_UNIVERSAL_TIME_OFFSET ( 1, 0, .AHEAD. ) ;
#174 = CARTESIAN_POINT ( 'NONE',  ( 0.0000000000000000000, 0.0000000000000000000, 0.0000000000000000000 ) ) ;
#175 = FACE_OUTER_BOUND ( 'NONE', #149, .T. ) ;
#176 = DIRECTION ( 'NONE',  ( 0.0000000000000000000, 1.000000000000000000, 0.0000000000000000000 ) ) ;
#177 = APPROVAL ( #172, 'UNSPECIFIED' ) ;
#178 = CLOSED_SHELL ( 'NONE', ( #154, #203, #161, #119, #71 ) ) ;
#179 = PRODUCT_DEFINITION_FORMATION_WITH_SPECIFIED_SOURCE ( 'ANY', '', #206, .NOT_KNOWN. ) ;
#180 = FACE_OUTER_BOUND ( 'NONE', #152, .T. ) ;
#181 = DIRECTION ( 'NONE',  ( -3.491481338843133355E-15, 1.224646799147353207E-16, -1.000000000000000000 ) ) ;
#182 = VERTEX_POINT ( 'NONE', #93 ) ;
#183 = CIRCLE ( 'NONE', #87, 1.004999999999993454 ) ;
#184 = APPROVAL_ROLE ( '' ) ;
#185 = PERSON_AND_ORGANIZATION_ROLE ( 'creator' ) ;
#186 = AXIS2_PLACEMENT_3D ( 'NONE', #143, #89, #195 ) ;
#187 = PRODUCT_DEFINITION ( 'UNKNOWN', '', #179, #60 ) ;
#188 = PERSON ( 'UNSPECIFIED', 'UNSPECIFIED', 'UNSPECIFIED', ('UNSPECIFIED'), ('UNSPECIFIED'), ('UNSPECIFIED') ) ;
#189 = CC_DESIGN_APPROVAL ( #32, ( #140 ) ) ;
#190 = MANIFOLD_SOLID_BREP ( 'Corps-Déplacer/Copier1[2]', #59 ) ;
#191 = DIRECTION ( 'NONE',  ( 0.0000000000000000000, 1.000000000000000000, 0.0000000000000000000 ) ) ;
#192 = DIRECTION ( 'NONE',  ( 3.491481338843133355E-15, -1.224646799147353207E-16, 1.000000000000000000 ) ) ;
#193 = PLANE ( 'NONE',  #207 ) ;
#194 = CIRCLE ( 'NONE', #66, 1.250000000000000666 ) ;
#195 = DIRECTION ( 'NONE',  ( 0.0000000000000000000, 1.000000000000000000, 0.0000000000000000000 ) ) ;
#196 = CC_DESIGN_PERSON_AND_ORGANIZATION_ASSIGNMENT ( #219, #17, ( #179 ) ) ;
#197 = CARTESIAN_POINT ( 'NONE',  ( 1.501336975702547217E-13, -5.265981236333618470E-15, 43.00000000000000000 ) ) ;
#198 = DATE_AND_TIME ( #144, #117 ) ;
#199 = CIRCLE ( 'NONE', #186, 0.9500000000000008438 ) ;
#200 = PERSON_AND_ORGANIZATION ( #188, #121 ) ;
#201 = ORIENTED_EDGE ( 'NONE', *, *, #107, .F. ) ;
#202 = EDGE_LOOP ( 'NONE', ( #221 ) ) ;
#203 = ADVANCED_FACE ( 'NONE', ( #53, #180 ), #156, .T. ) ;
#204 = PERSON_AND_ORGANIZATION_ROLE ( 'classification_officer' ) ;
#205 = SHAPE_DEFINITION_REPRESENTATION ( #38, #159 ) ;
#206 = PRODUCT ( '38096', '38096', '', ( #50 ) ) ;
#207 = AXIS2_PLACEMENT_3D ( 'NONE', #58, #163, #43 ) ;
#208 = LOCAL_TIME ( 15, 47, 42.00000000000000000, #130 ) ;
#209 = FACE_OUTER_BOUND ( 'NONE', #65, .T. ) ;
#210 = LOCAL_TIME ( 15, 47, 42.00000000000000000, #217 ) ;
#211 = CARTESIAN_POINT ( 'NONE',  ( 4.337939471889359001E-14, 1.249999999999995559, 12.42435244785438542 ) ) ;
#212 = CARTESIAN_POINT ( 'NONE',  ( 4.189777606611760026E-14, -1.469576158976823947E-15, 12.00000000000000000 ) ) ;
#213 = FACE_OUTER_BOUND ( 'NONE', #30, .T. ) ;
#214 = PLANE ( 'NONE',  #153 ) ;
#215 =( LENGTH_UNIT ( ) NAMED_UNIT ( * ) SI_UNIT ( .MILLI., .METRE. ) );
#216 = ORIENTED_EDGE ( 'NONE', *, *, #2, .F. ) ;
#217 = COORDINATED_UNIVERSAL_TIME_OFFSET ( 1, 0, .AHEAD. ) ;
#218 = EDGE_CURVE ( 'NONE', #40, #40, #183, .T. ) ;
#219 = PERSON_AND_ORGANIZATION ( #188, #121 ) ;
#220 = APPROVAL_STATUS ( 'not_yet_approved' ) ;
#221 = ORIENTED_EDGE ( 'NONE', *, *, #107, .T. ) ;
#222 = CC_DESIGN_PERSON_AND_ORGANIZATION_ASSIGNMENT ( #171, #134, ( #206 ) ) ;
#223 = CONICAL_SURFACE ( 'NONE', #101, 0.9500000000000008438, 0.7853981633974336241 ) ;
ENDSEC;
END-ISO-10303-21;
