ISO-10303-21;
HEADER;
FILE_DESCRIPTION (( 'STEP AP203' ),
    '1' );
FILE_NAME ('38094.step',
    '2021-10-07T13:47:41',
    ( '' ),
    ( '' ),
    'SwSTEP 2.0',
    'SolidWorks 2019',
    '' );
FILE_SCHEMA (( 'CONFIG_CONTROL_DESIGN' ));
ENDSEC;

DATA;
#1 = MECHANICAL_CONTEXT ( 'NONE', #199, 'mechanical' ) ;
#2 = CLOSED_SHELL ( 'NONE', ( #128, #31, #206, #5, #142 ) ) ;
#3 =( GEOMETRIC_REPRESENTATION_CONTEXT ( 3 ) GLOBAL_UNCERTAINTY_ASSIGNED_CONTEXT ( ( #36 ) ) GLOBAL_UNIT_ASSIGNED_CONTEXT ( ( #213, #18, #64 ) ) REPRESENTATION_CONTEXT ( 'NONE', 'WORKASPACE' ) );
#4 = DIRECTION ( 'NONE',  ( 0.0000000000000000000, 0.0000000000000000000, 1.000000000000000000 ) ) ;
#5 = ADVANCED_FACE ( 'NONE', ( #181, #218 ), #170, .T. ) ;
#6 = ORGANIZATION ( 'UNSPECIFIED', 'UNSPECIFIED', '' ) ;
#7 = DIRECTION ( 'NONE',  ( 0.0000000000000000000, 1.000000000000000000, 0.0000000000000000000 ) ) ;
#8 = ORIENTED_EDGE ( 'NONE', *, *, #10, .F. ) ;
#9 = EDGE_LOOP ( 'NONE', ( #52 ) ) ;
#10 = EDGE_CURVE ( 'NONE', #102, #102, #89, .T. ) ;
#11 = EDGE_LOOP ( 'NONE', ( #79 ) ) ;
#12 = AXIS2_PLACEMENT_3D ( 'NONE', #193, #135, #30 ) ;
#13 = CARTESIAN_POINT ( 'NONE',  ( 4.235133279655923853E-14, -1.485484787557698230E-15, 12.12990381056767042 ) ) ;
#14 = EDGE_LOOP ( 'NONE', ( #160 ) ) ;
#15 = PLANE ( 'NONE',  #119 ) ;
#16 = CARTESIAN_POINT ( 'NONE',  ( 1.326762908760390423E-13, 0.7999999999999962697, 38.00000000000000000 ) ) ;
#17 = DESIGN_CONTEXT ( 'detailed design', #74, 'design' ) ;
#18 =( NAMED_UNIT ( * ) PLANE_ANGLE_UNIT ( ) SI_UNIT ( $, .RADIAN. ) );
#19 = AXIS2_PLACEMENT_3D ( 'NONE', #151, #69, #133 ) ;
#20 = CC_DESIGN_APPROVAL ( #156, ( #180 ) ) ;
#21 = COORDINATED_UNIVERSAL_TIME_OFFSET ( 1, 0, .AHEAD. ) ;
#22 = EDGE_CURVE ( 'NONE', #129, #129, #147, .T. ) ;
#23 = EDGE_LOOP ( 'NONE', ( #148 ) ) ;
#24 = AXIS2_PLACEMENT_3D ( 'NONE', #82, #86, #146 ) ;
#25 = CALENDAR_DATE ( 2021, 7, 10 ) ;
#26 = CC_DESIGN_DATE_AND_TIME_ASSIGNMENT ( #126, #153, ( #124 ) ) ;
#27 = DIRECTION ( 'NONE',  ( -3.491481338843133355E-15, 1.224646799147353207E-16, -1.000000000000000000 ) ) ;
#28 = PRODUCT_DEFINITION_SHAPE ( 'NONE', 'NONE',  #65 ) ;
#29 = DIRECTION ( 'NONE',  ( 0.0000000000000000000, 1.000000000000000000, 0.0000000000000000000 ) ) ;
#30 = DIRECTION ( 'NONE',  ( -4.275831445896958607E-31, -1.000000000000000000, -1.224646799147353207E-16 ) ) ;
#31 = ADVANCED_FACE ( 'NONE', ( #80, #99 ), #57, .T. ) ;
#32 = EDGE_LOOP ( 'NONE', ( #8 ) ) ;
#33 = DIRECTION ( 'NONE',  ( 0.0000000000000000000, 1.000000000000000000, 0.0000000000000000000 ) ) ;
#34 = FACE_OUTER_BOUND ( 'NONE', #11, .T. ) ;
#35 = CARTESIAN_POINT ( 'NONE',  ( 1.319779946082704535E-13, -4.629164900776995227E-15, 37.79999999999999716 ) ) ;
#36 = UNCERTAINTY_MEASURE_WITH_UNIT (LENGTH_MEASURE( 1.000000000000000082E-05 ), #213, 'distance_accuracy_value', 'NONE');
#37 = PERSON_AND_ORGANIZATION_ROLE ( 'creator' ) ;
#38 = CC_DESIGN_APPROVAL ( #44, ( #124 ) ) ;
#39 = APPROVAL_STATUS ( 'not_yet_approved' ) ;
#40 = APPROVAL_DATE_TIME ( #103, #156 ) ;
#41 = APPROVAL_STATUS ( 'not_yet_approved' ) ;
#42 = CALENDAR_DATE ( 2021, 7, 10 ) ;
#43 = DIRECTION ( 'NONE',  ( 4.275831445896957731E-31, 1.000000000000000000, 1.224646799147353454E-16 ) ) ;
#44 = APPROVAL ( #41, 'UNSPECIFIED' ) ;
#45 = ORIENTED_EDGE ( 'NONE', *, *, #140, .T. ) ;
#46 = CYLINDRICAL_SURFACE ( 'NONE', #76, 0.9249999999999943823 ) ;
#47 = ORIENTED_EDGE ( 'NONE', *, *, #22, .F. ) ;
#48 = DIRECTION ( 'NONE',  ( -3.491481338843133355E-15, 1.224646799147353207E-16, -1.000000000000000000 ) ) ;
#49 = CARTESIAN_POINT ( 'NONE',  ( 1.326762908760390423E-13, -4.653657836759941941E-15, 38.00000000000000000 ) ) ;
#50 = FACE_OUTER_BOUND ( 'NONE', #179, .T. ) ;
#51 = LOCAL_TIME ( 15, 47, 41.00000000000000000, #72 ) ;
#52 = ORIENTED_EDGE ( 'NONE', *, *, #140, .F. ) ;
#53 = CYLINDRICAL_SURFACE ( 'NONE', #110, 0.9999999999999988898 ) ;
#54 = APPROVAL_DATE_TIME ( #169, #44 ) ;
#55 = APPROVAL_STATUS ( 'not_yet_approved' ) ;
#56 = EDGE_CURVE ( 'NONE', #173, #173, #209, .T. ) ;
#57 = CONICAL_SURFACE ( 'NONE', #108, 0.9999999999999970024, 0.5235987755982929315 ) ;
#58 = APPLICATION_PROTOCOL_DEFINITION ( 'international standard', 'config_control_design', 1994, #74 ) ;
#59 = SECURITY_CLASSIFICATION_LEVEL ( 'unclassified' ) ;
#60 = PERSON_AND_ORGANIZATION ( #149, #6 ) ;
#61 = CC_DESIGN_APPROVAL ( #137, ( #65 ) ) ;
#62 = CC_DESIGN_PERSON_AND_ORGANIZATION_ASSIGNMENT ( #60, #152, ( #180 ) ) ;
#63 = AXIS2_PLACEMENT_3D ( 'NONE', #112, #175, #29 ) ;
#64 =( NAMED_UNIT ( * ) SI_UNIT ( $, .STERADIAN. ) SOLID_ANGLE_UNIT ( ) );
#65 = PRODUCT_DEFINITION ( 'UNKNOWN', '', #180, #17 ) ;
#66 = DIRECTION ( 'NONE',  ( -3.491481338843133355E-15, 1.224646799147353207E-16, -1.000000000000000000 ) ) ;
#67 = EDGE_LOOP ( 'NONE', ( #100 ) ) ;
#68 = DIRECTION ( 'NONE',  ( -3.491481338843133355E-15, 1.224646799147353207E-16, -1.000000000000000000 ) ) ;
#69 = DIRECTION ( 'NONE',  ( 3.491481338843133355E-15, -1.224646799147353207E-16, 1.000000000000000000 ) ) ;
#70 = EDGE_LOOP ( 'NONE', ( #150 ) ) ;
#71 = DIRECTION ( 'NONE',  ( 1.000000000000000000, 0.0000000000000000000, 0.0000000000000000000 ) ) ;
#72 = COORDINATED_UNIVERSAL_TIME_OFFSET ( 1, 0, .AHEAD. ) ;
#73 = PERSON_AND_ORGANIZATION ( #149, #6 ) ;
#74 = APPLICATION_CONTEXT ( 'configuration controlled 3d designs of mechanical parts and assemblies' ) ;
#75 = SHAPE_DEFINITION_REPRESENTATION ( #28, #123 ) ;
#76 = AXIS2_PLACEMENT_3D ( 'NONE', #214, #194, #221 ) ;
#77 = CARTESIAN_POINT ( 'NONE',  ( 4.189777606611760026E-14, -1.469576158976823947E-15, 12.00000000000000000 ) ) ;
#78 = APPROVAL_PERSON_ORGANIZATION ( #106, #44, #107 ) ;
#79 = ORIENTED_EDGE ( 'NONE', *, *, #22, .T. ) ;
#80 = FACE_BOUND ( 'NONE', #70, .T. ) ;
#81 = FACE_OUTER_BOUND ( 'NONE', #32, .T. ) ;
#82 = CARTESIAN_POINT ( 'NONE',  ( 1.940551615686933423E-15, -6.806538812888667505E-17, 0.5557960726004954610 ) ) ;
#83 = EDGE_LOOP ( 'NONE', ( #220 ) ) ;
#84 = LOCAL_TIME ( 15, 47, 41.00000000000000000, #21 ) ;
#85 = DIRECTION ( 'NONE',  ( 0.0000000000000000000, 1.000000000000000000, 0.0000000000000000000 ) ) ;
#86 = DIRECTION ( 'NONE',  ( -3.491481338843133355E-15, 1.224646799147353207E-16, -1.000000000000000000 ) ) ;
#87 = CARTESIAN_POINT ( 'NONE',  ( 4.189777606611760026E-14, 0.9249999999999934941, 12.00000000000000000 ) ) ;
#88 = PRODUCT ( '38094', '38094', '', ( #1 ) ) ;
#89 = CIRCLE ( 'NONE', #202, 0.9249999999999950484 ) ;
#90 = CC_DESIGN_PERSON_AND_ORGANIZATION_ASSIGNMENT ( #93, #189, ( #180 ) ) ;
#91 = COORDINATED_UNIVERSAL_TIME_OFFSET ( 1, 0, .AHEAD. ) ;
#92 = CARTESIAN_POINT ( 'NONE',  ( 0.0000000000000000000, 0.0000000000000000000, 0.0000000000000000000 ) ) ;
#93 = PERSON_AND_ORGANIZATION ( #149, #6 ) ;
#94 = CIRCLE ( 'NONE', #95, 0.8000000000000009326 ) ;
#95 = AXIS2_PLACEMENT_3D ( 'NONE', #49, #66, #117 ) ;
#96 = VERTEX_POINT ( 'NONE', #87 ) ;
#97 = EDGE_LOOP ( 'NONE', ( #47 ) ) ;
#98 = CC_DESIGN_PERSON_AND_ORGANIZATION_ASSIGNMENT ( #139, #37, ( #65 ) ) ;
#99 = FACE_OUTER_BOUND ( 'NONE', #67, .T. ) ;
#100 = ORIENTED_EDGE ( 'NONE', *, *, #145, .T. ) ;
#101 = CARTESIAN_POINT ( 'NONE',  ( 4.189777606611760026E-14, 0.9249999999999934941, 12.00000000000000000 ) ) ;
#102 = VERTEX_POINT ( 'NONE', #101 ) ;
#103 = DATE_AND_TIME ( #167, #205 ) ;
#104 = CIRCLE ( 'NONE', #216, 0.9249999999999950484 ) ;
#105 = PERSON_AND_ORGANIZATION_ROLE ( 'classification_officer' ) ;
#106 = PERSON_AND_ORGANIZATION ( #149, #6 ) ;
#107 = APPROVAL_ROLE ( '' ) ;
#108 = AXIS2_PLACEMENT_3D ( 'NONE', #13, #197, #196 ) ;
#109 = ADVANCED_FACE ( 'NONE', ( #34 ), #185, .T. ) ;
#110 = AXIS2_PLACEMENT_3D ( 'NONE', #176, #121, #43 ) ;
#111 = CARTESIAN_POINT ( 'NONE',  ( 1.319779946082704535E-13, 0.9999999999999963363, 37.79999999999999716 ) ) ;
#112 = CARTESIAN_POINT ( 'NONE',  ( 4.235133279655923853E-14, -1.485484787557698230E-15, 12.12990381056767042 ) ) ;
#113 = LOCAL_TIME ( 15, 47, 41.00000000000000000, #122 ) ;
#114 = FACE_OUTER_BOUND ( 'NONE', #83, .T. ) ;
#115 = DIRECTION ( 'NONE',  ( 3.491481338843133355E-15, -1.224646799147353207E-16, 1.000000000000000000 ) ) ;
#116 = MANIFOLD_SOLID_BREP ( 'Corps-Déplacer/Copier1[2]', #190 ) ;
#117 = DIRECTION ( 'NONE',  ( 0.0000000000000000000, 1.000000000000000000, 0.0000000000000000000 ) ) ;
#118 = AXIS2_PLACEMENT_3D ( 'NONE', #161, #68, #132 ) ;
#119 = AXIS2_PLACEMENT_3D ( 'NONE', #203, #120, #144 ) ;
#120 = DIRECTION ( 'NONE',  ( -3.491481338843133355E-15, 1.224646799147353207E-16, -1.000000000000000000 ) ) ;
#121 = DIRECTION ( 'NONE',  ( -3.491481338843133355E-15, 1.224646799147353207E-16, -1.000000000000000000 ) ) ;
#122 = COORDINATED_UNIVERSAL_TIME_OFFSET ( 1, 0, .AHEAD. ) ;
#123 = ADVANCED_BREP_SHAPE_REPRESENTATION ( '38094', ( #187, #116, #204 ), #3 ) ;
#124 = SECURITY_CLASSIFICATION ( '', '', #59 ) ;
#125 = PERSON_AND_ORGANIZATION ( #149, #6 ) ;
#126 = DATE_AND_TIME ( #186, #131 ) ;
#127 = APPROVAL_PERSON_ORGANIZATION ( #208, #156, #166 ) ;
#128 = ADVANCED_FACE ( 'NONE', ( #114 ), #177, .F. ) ;
#129 = VERTEX_POINT ( 'NONE', #174 ) ;
#130 = CARTESIAN_POINT ( 'NONE',  ( 4.235133279655923853E-14, 0.9999999999999954481, 12.12990381056767042 ) ) ;
#131 = LOCAL_TIME ( 15, 47, 41.00000000000000000, #91 ) ;
#132 = DIRECTION ( 'NONE',  ( 0.0000000000000000000, 1.000000000000000000, 0.0000000000000000000 ) ) ;
#133 = DIRECTION ( 'NONE',  ( -4.275831445896958607E-31, -1.000000000000000000, -1.224646799147353207E-16 ) ) ;
#134 = DIRECTION ( 'NONE',  ( -3.491481338843133355E-15, 1.224646799147353207E-16, -1.000000000000000000 ) ) ;
#135 = DIRECTION ( 'NONE',  ( 3.491481338843133355E-15, -1.224646799147353207E-16, 1.000000000000000000 ) ) ;
#136 = CALENDAR_DATE ( 2021, 7, 10 ) ;
#137 = APPROVAL ( #55, 'UNSPECIFIED' ) ;
#138 = DATE_AND_TIME ( #25, #113 ) ;
#139 = PERSON_AND_ORGANIZATION ( #149, #6 ) ;
#140 = EDGE_CURVE ( 'NONE', #165, #165, #94, .T. ) ;
#141 = CC_DESIGN_SECURITY_CLASSIFICATION ( #124, ( #180 ) ) ;
#142 = ADVANCED_FACE ( 'NONE', ( #164 ), #15, .F. ) ;
#143 = PLANE ( 'NONE',  #12 ) ;
#144 = DIRECTION ( 'NONE',  ( 4.275831445896958607E-31, 1.000000000000000000, 1.224646799147353207E-16 ) ) ;
#145 = EDGE_CURVE ( 'NONE', #212, #212, #191, .T. ) ;
#146 = DIRECTION ( 'NONE',  ( 4.164172852729187337E-31, 1.000000000000000000, 1.172110456741093963E-16 ) ) ;
#147 = CIRCLE ( 'NONE', #24, 0.9249999999999936051 ) ;
#148 = ORIENTED_EDGE ( 'NONE', *, *, #145, .F. ) ;
#149 = PERSON ( 'UNSPECIFIED', 'UNSPECIFIED', 'UNSPECIFIED', ('UNSPECIFIED'), ('UNSPECIFIED'), ('UNSPECIFIED') ) ;
#150 = ORIENTED_EDGE ( 'NONE', *, *, #217, .F. ) ;
#151 = CARTESIAN_POINT ( 'NONE',  ( 4.189777606611760026E-14, 6.936388994811031224E-33, 12.00000000000000000 ) ) ;
#152 = PERSON_AND_ORGANIZATION_ROLE ( 'design_supplier' ) ;
#153 = DATE_TIME_ROLE ( 'classification_date' ) ;
#154 = APPLICATION_PROTOCOL_DEFINITION ( 'international standard', 'config_control_design', 1994, #199 ) ;
#155 = PERSON_AND_ORGANIZATION ( #149, #6 ) ;
#156 = APPROVAL ( #39, 'UNSPECIFIED' ) ;
#157 = AXIS2_PLACEMENT_3D ( 'NONE', #35, #134, #85 ) ;
#158 = PRODUCT_RELATED_PRODUCT_CATEGORY ( 'detail', '', ( #88 ) ) ;
#159 = FACE_OUTER_BOUND ( 'NONE', #23, .T. ) ;
#160 = ORIENTED_EDGE ( 'NONE', *, *, #56, .T. ) ;
#161 = CARTESIAN_POINT ( 'NONE',  ( 1.326762908760390423E-13, -4.653657836759941941E-15, 38.00000000000000000 ) ) ;
#162 = EDGE_LOOP ( 'NONE', ( #45 ) ) ;
#163 = CARTESIAN_POINT ( 'NONE',  ( 4.189777606611760026E-14, -1.469576158976823947E-15, 12.00000000000000000 ) ) ;
#164 = FACE_OUTER_BOUND ( 'NONE', #9, .T. ) ;
#165 = VERTEX_POINT ( 'NONE', #16 ) ;
#166 = APPROVAL_ROLE ( '' ) ;
#167 = CALENDAR_DATE ( 2021, 7, 10 ) ;
#168 = DATE_TIME_ROLE ( 'creation_date' ) ;
#169 = DATE_AND_TIME ( #136, #51 ) ;
#170 = CONICAL_SURFACE ( 'NONE', #118, 0.8000000000000009326, 0.7853981633974512766 ) ;
#171 = CC_DESIGN_PERSON_AND_ORGANIZATION_ASSIGNMENT ( #155, #223, ( #88 ) ) ;
#172 = APPROVAL_PERSON_ORGANIZATION ( #73, #137, #188 ) ;
#173 = VERTEX_POINT ( 'NONE', #111 ) ;
#174 = CARTESIAN_POINT ( 'NONE',  ( 1.940551615686933818E-15, 0.9249999999999934941, 0.5557960726004955720 ) ) ;
#175 = DIRECTION ( 'NONE',  ( -3.491481338843133355E-15, 1.224646799147353207E-16, -1.000000000000000000 ) ) ;
#176 = CARTESIAN_POINT ( 'NONE',  ( 0.0000000000000000000, 0.0000000000000000000, 0.0000000000000000000 ) ) ;
#177 = PLANE ( 'NONE',  #19 ) ;
#178 = CARTESIAN_POINT ( 'NONE',  ( 1.940551615686933423E-15, -6.806538812888667505E-17, 0.5557960726004954610 ) ) ;
#179 = EDGE_LOOP ( 'NONE', ( #200 ) ) ;
#180 = PRODUCT_DEFINITION_FORMATION_WITH_SPECIFIED_SOURCE ( 'ANY', '', #88, .NOT_KNOWN. ) ;
#181 = FACE_OUTER_BOUND ( 'NONE', #211, .T. ) ;
#182 = FACE_OUTER_BOUND ( 'NONE', #14, .T. ) ;
#183 = COORDINATED_UNIVERSAL_TIME_OFFSET ( 1, 0, .AHEAD. ) ;
#184 = APPROVAL_DATE_TIME ( #138, #137 ) ;
#185 = CONICAL_SURFACE ( 'NONE', #195, 0.9249999999999936051, 1.029744258676649649 ) ;
#186 = CALENDAR_DATE ( 2021, 7, 10 ) ;
#187 = MANIFOLD_SOLID_BREP ( 'Corps-Déplacer/Copier1[1]', #2 ) ;
#188 = APPROVAL_ROLE ( '' ) ;
#189 = PERSON_AND_ORGANIZATION_ROLE ( 'creator' ) ;
#190 = CLOSED_SHELL ( 'NONE', ( #109, #192, #222 ) ) ;
#191 = CIRCLE ( 'NONE', #63, 0.9999999999999970024 ) ;
#192 = ADVANCED_FACE ( 'NONE', ( #201, #50 ), #46, .T. ) ;
#193 = CARTESIAN_POINT ( 'NONE',  ( 4.189777606611760026E-14, 6.936388994811031224E-33, 12.00000000000000000 ) ) ;
#194 = DIRECTION ( 'NONE',  ( -3.491481338843133355E-15, 1.224646799147353207E-16, -1.000000000000000000 ) ) ;
#195 = AXIS2_PLACEMENT_3D ( 'NONE', #178, #115, #219 ) ;
#196 = DIRECTION ( 'NONE',  ( 0.0000000000000000000, -1.000000000000000000, 0.0000000000000000000 ) ) ;
#197 = DIRECTION ( 'NONE',  ( 3.491481338843133355E-15, -1.224646799147353207E-16, 1.000000000000000000 ) ) ;
#198 = CC_DESIGN_PERSON_AND_ORGANIZATION_ASSIGNMENT ( #125, #105, ( #124 ) ) ;
#199 = APPLICATION_CONTEXT ( 'configuration controlled 3d designs of mechanical parts and assemblies' ) ;
#200 = ORIENTED_EDGE ( 'NONE', *, *, #10, .T. ) ;
#201 = FACE_OUTER_BOUND ( 'NONE', #97, .T. ) ;
#202 = AXIS2_PLACEMENT_3D ( 'NONE', #163, #48, #33 ) ;
#203 = CARTESIAN_POINT ( 'NONE',  ( 1.326762908760390423E-13, 5.999039130647367482E-33, 38.00000000000000000 ) ) ;
#204 = AXIS2_PLACEMENT_3D ( 'NONE', #92, #4, #71 ) ;
#205 = LOCAL_TIME ( 15, 47, 41.00000000000000000, #183 ) ;
#206 = ADVANCED_FACE ( 'NONE', ( #159, #182 ), #53, .T. ) ;
#207 = DATE_AND_TIME ( #42, #84 ) ;
#208 = PERSON_AND_ORGANIZATION ( #149, #6 ) ;
#209 = CIRCLE ( 'NONE', #157, 1.000000000000000888 ) ;
#210 = CC_DESIGN_DATE_AND_TIME_ASSIGNMENT ( #207, #168, ( #65 ) ) ;
#211 = EDGE_LOOP ( 'NONE', ( #215 ) ) ;
#212 = VERTEX_POINT ( 'NONE', #130 ) ;
#213 =( LENGTH_UNIT ( ) NAMED_UNIT ( * ) SI_UNIT ( .MILLI., .METRE. ) );
#214 = CARTESIAN_POINT ( 'NONE',  ( 0.0000000000000000000, 0.0000000000000000000, 0.0000000000000000000 ) ) ;
#215 = ORIENTED_EDGE ( 'NONE', *, *, #56, .F. ) ;
#216 = AXIS2_PLACEMENT_3D ( 'NONE', #77, #27, #7 ) ;
#217 = EDGE_CURVE ( 'NONE', #96, #96, #104, .T. ) ;
#218 = FACE_BOUND ( 'NONE', #162, .T. ) ;
#219 = DIRECTION ( 'NONE',  ( -4.164172852729187337E-31, -1.000000000000000000, -1.172110456741093963E-16 ) ) ;
#220 = ORIENTED_EDGE ( 'NONE', *, *, #217, .T. ) ;
#221 = DIRECTION ( 'NONE',  ( 4.275831445896959482E-31, 1.000000000000000000, 1.224646799147353207E-16 ) ) ;
#222 = ADVANCED_FACE ( 'NONE', ( #81 ), #143, .T. ) ;
#223 = PERSON_AND_ORGANIZATION_ROLE ( 'design_owner' ) ;
ENDSEC;
END-ISO-10303-21;
