ISO-10303-21;
HEADER;
FILE_DESCRIPTION (( 'STEP AP203' ),
    '1' );
FILE_NAME ('38093.step',
    '2021-10-07T13:47:41',
    ( '' ),
    ( '' ),
    'SwSTEP 2.0',
    'SolidWorks 2019',
    '' );
FILE_SCHEMA (( 'CONFIG_CONTROL_DESIGN' ));
ENDSEC;

DATA;
#1 =( GEOMETRIC_REPRESENTATION_CONTEXT ( 3 ) GLOBAL_UNCERTAINTY_ASSIGNED_CONTEXT ( ( #70 ) ) GLOBAL_UNIT_ASSIGNED_CONTEXT ( ( #96, #45, #193 ) ) REPRESENTATION_CONTEXT ( 'NONE', 'WORKASPACE' ) );
#2 = ADVANCED_FACE ( 'NONE', ( #181, #50 ), #33, .T. ) ;
#3 = CALENDAR_DATE ( 2021, 7, 10 ) ;
#4 = PRODUCT ( '38093', '38093', '', ( #43 ) ) ;
#5 = CIRCLE ( 'NONE', #132, 0.8749999999999953371 ) ;
#6 = SHAPE_DEFINITION_REPRESENTATION ( #162, #163 ) ;
#7 = CC_DESIGN_PERSON_AND_ORGANIZATION_ASSIGNMENT ( #63, #191, ( #114 ) ) ;
#8 = AXIS2_PLACEMENT_3D ( 'NONE', #12, #89, #153 ) ;
#9 = DIRECTION ( 'NONE',  ( -3.491481338843133355E-15, 1.224646799147353207E-16, -1.000000000000000000 ) ) ;
#10 = DIRECTION ( 'NONE',  ( -3.491481338843133355E-15, 1.224646799147353207E-16, -1.000000000000000000 ) ) ;
#11 = EDGE_LOOP ( 'NONE', ( #88 ) ) ;
#12 = CARTESIAN_POINT ( 'NONE',  ( 1.326762908760390423E-13, 5.999039130647367482E-33, 38.00000000000000000 ) ) ;
#13 = DIRECTION ( 'NONE',  ( 3.491481338843133355E-15, -1.224646799147353207E-16, 1.000000000000000000 ) ) ;
#14 = CC_DESIGN_DATE_AND_TIME_ASSIGNMENT ( #110, #21, ( #215 ) ) ;
#15 = AXIS2_PLACEMENT_3D ( 'NONE', #119, #122, #85 ) ;
#16 = DIRECTION ( 'NONE',  ( 3.491481338843133355E-15, -1.224646799147353207E-16, 1.000000000000000000 ) ) ;
#17 = CC_DESIGN_DATE_AND_TIME_ASSIGNMENT ( #25, #113, ( #114 ) ) ;
#18 = APPLICATION_CONTEXT ( 'configuration controlled 3d designs of mechanical parts and assemblies' ) ;
#19 = PERSON_AND_ORGANIZATION_ROLE ( 'design_supplier' ) ;
#20 = LOCAL_TIME ( 15, 47, 41.00000000000000000, #158 ) ;
#21 = DATE_TIME_ROLE ( 'classification_date' ) ;
#22 = EDGE_LOOP ( 'NONE', ( #200 ) ) ;
#23 = ORIENTED_EDGE ( 'NONE', *, *, #60, .T. ) ;
#24 = CC_DESIGN_APPROVAL ( #72, ( #114 ) ) ;
#25 = DATE_AND_TIME ( #129, #99 ) ;
#26 = EDGE_LOOP ( 'NONE', ( #49 ) ) ;
#27 = ADVANCED_FACE ( 'NONE', ( #106, #104 ), #120, .T. ) ;
#28 = AXIS2_PLACEMENT_3D ( 'NONE', #161, #175, #143 ) ;
#29 = CARTESIAN_POINT ( 'NONE',  ( 1.326762908760390423E-13, -4.653657836759941941E-15, 38.00000000000000000 ) ) ;
#30 = CARTESIAN_POINT ( 'NONE',  ( 0.0000000000000000000, 0.0000000000000000000, 0.0000000000000000000 ) ) ;
#31 = CARTESIAN_POINT ( 'NONE',  ( 4.265370395018698897E-14, -1.496090539944947292E-15, 12.21650635094611559 ) ) ;
#32 = AXIS2_PLACEMENT_3D ( 'NONE', #151, #48, #178 ) ;
#33 = CYLINDRICAL_SURFACE ( 'NONE', #32, 0.8749999999999944489 ) ;
#34 = VERTEX_POINT ( 'NONE', #36 ) ;
#35 = FACE_OUTER_BOUND ( 'NONE', #67, .T. ) ;
#36 = CARTESIAN_POINT ( 'NONE',  ( 1.326762908760390423E-13, 0.7999999999999962697, 38.00000000000000000 ) ) ;
#37 = DIRECTION ( 'NONE',  ( -3.491481338843133355E-15, 1.224646799147353207E-16, -1.000000000000000000 ) ) ;
#38 = EDGE_CURVE ( 'NONE', #125, #125, #53, .T. ) ;
#39 = CARTESIAN_POINT ( 'NONE',  ( 4.189777606611760026E-14, 0.8749999999999937828, 12.00000000000000000 ) ) ;
#40 = PERSON_AND_ORGANIZATION ( #75, #156 ) ;
#41 = APPROVAL_PERSON_ORGANIZATION ( #174, #72, #127 ) ;
#42 = VERTEX_POINT ( 'NONE', #112 ) ;
#43 = MECHANICAL_CONTEXT ( 'NONE', #197, 'mechanical' ) ;
#44 = MANIFOLD_SOLID_BREP ( 'Corps-Déplacer/Copier1[2]', #97 ) ;
#45 =( NAMED_UNIT ( * ) PLANE_ANGLE_UNIT ( ) SI_UNIT ( $, .RADIAN. ) );
#46 = AXIS2_PLACEMENT_3D ( 'NONE', #155, #74, #206 ) ;
#47 = COORDINATED_UNIVERSAL_TIME_OFFSET ( 1, 0, .AHEAD. ) ;
#48 = DIRECTION ( 'NONE',  ( -3.491481338843133355E-15, 1.224646799147353207E-16, -1.000000000000000000 ) ) ;
#49 = ORIENTED_EDGE ( 'NONE', *, *, #108, .F. ) ;
#50 = FACE_OUTER_BOUND ( 'NONE', #62, .T. ) ;
#51 = ORIENTED_EDGE ( 'NONE', *, *, #219, .F. ) ;
#52 = DIRECTION ( 'NONE',  ( 0.0000000000000000000, 1.000000000000000000, 0.0000000000000000000 ) ) ;
#53 = CIRCLE ( 'NONE', #222, 0.8749999999999953371 ) ;
#54 = DIRECTION ( 'NONE',  ( 0.0000000000000000000, 1.000000000000000000, 0.0000000000000000000 ) ) ;
#55 = DATE_AND_TIME ( #117, #154 ) ;
#56 = DIRECTION ( 'NONE',  ( -4.275831445896958607E-31, -1.000000000000000000, -1.224646799147353207E-16 ) ) ;
#57 = CC_DESIGN_APPROVAL ( #98, ( #165 ) ) ;
#58 = APPLICATION_PROTOCOL_DEFINITION ( 'international standard', 'config_control_design', 1994, #197 ) ;
#59 = CC_DESIGN_APPROVAL ( #159, ( #215 ) ) ;
#60 = EDGE_CURVE ( 'NONE', #34, #34, #116, .T. ) ;
#61 = APPLICATION_PROTOCOL_DEFINITION ( 'international standard', 'config_control_design', 1994, #18 ) ;
#62 = EDGE_LOOP ( 'NONE', ( #138 ) ) ;
#63 = PERSON_AND_ORGANIZATION ( #75, #156 ) ;
#64 = APPROVAL_DATE_TIME ( #208, #98 ) ;
#65 = ADVANCED_FACE ( 'NONE', ( #167, #86 ), #205, .T. ) ;
#66 = ORIENTED_EDGE ( 'NONE', *, *, #81, .F. ) ;
#67 = EDGE_LOOP ( 'NONE', ( #145 ) ) ;
#68 = AXIS2_PLACEMENT_3D ( 'NONE', #30, #9, #136 ) ;
#69 = DIRECTION ( 'NONE',  ( 0.0000000000000000000, 1.000000000000000000, 0.0000000000000000000 ) ) ;
#70 = UNCERTAINTY_MEASURE_WITH_UNIT (LENGTH_MEASURE( 1.000000000000000082E-05 ), #96, 'distance_accuracy_value', 'NONE');
#71 = EDGE_LOOP ( 'NONE', ( #66 ) ) ;
#72 = APPROVAL ( #130, 'UNSPECIFIED' ) ;
#73 = DIRECTION ( 'NONE',  ( -3.491481338843133355E-15, 1.224646799147353207E-16, -1.000000000000000000 ) ) ;
#74 = DIRECTION ( 'NONE',  ( -3.491481338843133355E-15, 1.224646799147353207E-16, -1.000000000000000000 ) ) ;
#75 = PERSON ( 'UNSPECIFIED', 'UNSPECIFIED', 'UNSPECIFIED', ('UNSPECIFIED'), ('UNSPECIFIED'), ('UNSPECIFIED') ) ;
#76 = FACE_OUTER_BOUND ( 'NONE', #180, .T. ) ;
#77 = AXIS2_PLACEMENT_3D ( 'NONE', #139, #204, #54 ) ;
#78 = COORDINATED_UNIVERSAL_TIME_OFFSET ( 1, 0, .AHEAD. ) ;
#79 = CC_DESIGN_SECURITY_CLASSIFICATION ( #215, ( #165 ) ) ;
#80 = APPROVAL_STATUS ( 'not_yet_approved' ) ;
#81 = EDGE_CURVE ( 'NONE', #141, #141, #5, .T. ) ;
#82 = COORDINATED_UNIVERSAL_TIME_OFFSET ( 1, 0, .AHEAD. ) ;
#83 = AXIS2_PLACEMENT_3D ( 'NONE', #29, #10, #152 ) ;
#84 = PLANE ( 'NONE',  #101 ) ;
#85 = DIRECTION ( 'NONE',  ( 0.0000000000000000000, -1.000000000000000000, 0.0000000000000000000 ) ) ;
#86 = FACE_OUTER_BOUND ( 'NONE', #11, .T. ) ;
#87 = CIRCLE ( 'NONE', #140, 1.000000000000000888 ) ;
#88 = ORIENTED_EDGE ( 'NONE', *, *, #108, .T. ) ;
#89 = DIRECTION ( 'NONE',  ( -3.491481338843133355E-15, 1.224646799147353207E-16, -1.000000000000000000 ) ) ;
#90 = VERTEX_POINT ( 'NONE', #164 ) ;
#91 = SECURITY_CLASSIFICATION_LEVEL ( 'unclassified' ) ;
#92 = CONICAL_SURFACE ( 'NONE', #77, 0.8000000000000009326, 0.7853981633974512766 ) ;
#93 = CC_DESIGN_PERSON_AND_ORGANIZATION_ASSIGNMENT ( #196, #173, ( #165 ) ) ;
#94 = PERSON_AND_ORGANIZATION ( #75, #156 ) ;
#95 = PERSON_AND_ORGANIZATION ( #75, #156 ) ;
#96 =( LENGTH_UNIT ( ) NAMED_UNIT ( * ) SI_UNIT ( .MILLI., .METRE. ) );
#97 = CLOSED_SHELL ( 'NONE', ( #182, #2, #201 ) ) ;
#98 = APPROVAL ( #80, 'UNSPECIFIED' ) ;
#99 = LOCAL_TIME ( 15, 47, 41.00000000000000000, #78 ) ;
#100 = APPROVAL_ROLE ( '' ) ;
#101 = AXIS2_PLACEMENT_3D ( 'NONE', #149, #147, #216 ) ;
#102 = APPROVAL_PERSON_ORGANIZATION ( #94, #159, #179 ) ;
#103 = PRODUCT_RELATED_PRODUCT_CATEGORY ( 'detail', '', ( #4 ) ) ;
#104 = FACE_OUTER_BOUND ( 'NONE', #166, .T. ) ;
#105 = DIRECTION ( 'NONE',  ( 0.0000000000000000000, 1.000000000000000000, 0.0000000000000000000 ) ) ;
#106 = FACE_OUTER_BOUND ( 'NONE', #26, .T. ) ;
#107 = CARTESIAN_POINT ( 'NONE',  ( 4.265370395018698897E-14, 0.9999999999999954481, 12.21650635094611559 ) ) ;
#108 = EDGE_CURVE ( 'NONE', #170, #170, #209, .T. ) ;
#109 = CC_DESIGN_PERSON_AND_ORGANIZATION_ASSIGNMENT ( #212, #144, ( #4 ) ) ;
#110 = DATE_AND_TIME ( #3, #20 ) ;
#111 = CONICAL_SURFACE ( 'NONE', #135, 0.8749999999999936717, 1.029744258676649871 ) ;
#112 = CARTESIAN_POINT ( 'NONE',  ( 1.835656933757909014E-15, 0.8749999999999935607, 0.5257530416491170699 ) ) ;
#113 = DATE_TIME_ROLE ( 'creation_date' ) ;
#114 = PRODUCT_DEFINITION ( 'UNKNOWN', '', #165, #121 ) ;
#115 = ORIENTED_EDGE ( 'NONE', *, *, #60, .F. ) ;
#116 = CIRCLE ( 'NONE', #83, 0.8000000000000009326 ) ;
#117 = CALENDAR_DATE ( 2021, 7, 10 ) ;
#118 = ORIENTED_EDGE ( 'NONE', *, *, #211, .T. ) ;
#119 = CARTESIAN_POINT ( 'NONE',  ( 4.265370395018698897E-14, -1.496090539944947292E-15, 12.21650635094611559 ) ) ;
#120 = CYLINDRICAL_SURFACE ( 'NONE', #68, 0.9999999999999988898 ) ;
#121 = DESIGN_CONTEXT ( 'detailed design', #18, 'design' ) ;
#122 = DIRECTION ( 'NONE',  ( 3.491481338843133355E-15, -1.224646799147353207E-16, 1.000000000000000000 ) ) ;
#123 = LOCAL_TIME ( 15, 47, 41.00000000000000000, #82 ) ;
#124 = CARTESIAN_POINT ( 'NONE',  ( 4.189777606611760026E-14, -1.469576158976823947E-15, 12.00000000000000000 ) ) ;
#125 = VERTEX_POINT ( 'NONE', #190 ) ;
#126 = AXIS2_PLACEMENT_3D ( 'NONE', #188, #16, #56 ) ;
#127 = APPROVAL_ROLE ( '' ) ;
#128 = CC_DESIGN_PERSON_AND_ORGANIZATION_ASSIGNMENT ( #95, #157, ( #215 ) ) ;
#129 = CALENDAR_DATE ( 2021, 7, 10 ) ;
#130 = APPROVAL_STATUS ( 'not_yet_approved' ) ;
#131 = DATE_AND_TIME ( #195, #183 ) ;
#132 = AXIS2_PLACEMENT_3D ( 'NONE', #171, #218, #69 ) ;
#133 = ADVANCED_FACE ( 'NONE', ( #184 ), #220, .F. ) ;
#134 = FACE_BOUND ( 'NONE', #194, .T. ) ;
#135 = AXIS2_PLACEMENT_3D ( 'NONE', #160, #13, #187 ) ;
#136 = DIRECTION ( 'NONE',  ( 4.275831445896957731E-31, 1.000000000000000000, 1.224646799147353454E-16 ) ) ;
#137 = EDGE_LOOP ( 'NONE', ( #51 ) ) ;
#138 = ORIENTED_EDGE ( 'NONE', *, *, #38, .T. ) ;
#139 = CARTESIAN_POINT ( 'NONE',  ( 1.326762908760390423E-13, -4.653657836759941941E-15, 38.00000000000000000 ) ) ;
#140 = AXIS2_PLACEMENT_3D ( 'NONE', #223, #37, #52 ) ;
#141 = VERTEX_POINT ( 'NONE', #39 ) ;
#142 = PLANE ( 'NONE',  #126 ) ;
#143 = DIRECTION ( 'NONE',  ( 1.000000000000000000, 0.0000000000000000000, 0.0000000000000000000 ) ) ;
#144 = PERSON_AND_ORGANIZATION_ROLE ( 'design_owner' ) ;
#145 = ORIENTED_EDGE ( 'NONE', *, *, #81, .T. ) ;
#146 = ADVANCED_FACE ( 'NONE', ( #221, #134 ), #92, .T. ) ;
#147 = DIRECTION ( 'NONE',  ( 3.491481338843133355E-15, -1.224646799147353207E-16, 1.000000000000000000 ) ) ;
#148 = ADVANCED_FACE ( 'NONE', ( #35 ), #84, .F. ) ;
#149 = CARTESIAN_POINT ( 'NONE',  ( 4.189777606611760026E-14, 6.561449049145569559E-33, 12.00000000000000000 ) ) ;
#150 = CLOSED_SHELL ( 'NONE', ( #148, #65, #27, #146, #133 ) ) ;
#151 = CARTESIAN_POINT ( 'NONE',  ( 0.0000000000000000000, 0.0000000000000000000, 0.0000000000000000000 ) ) ;
#152 = DIRECTION ( 'NONE',  ( 0.0000000000000000000, 1.000000000000000000, 0.0000000000000000000 ) ) ;
#153 = DIRECTION ( 'NONE',  ( 4.275831445896958607E-31, 1.000000000000000000, 1.224646799147353207E-16 ) ) ;
#154 = LOCAL_TIME ( 15, 47, 41.00000000000000000, #47 ) ;
#155 = CARTESIAN_POINT ( 'NONE',  ( 1.835656933757908620E-15, -6.438617795975762161E-17, 0.5257530416491169589 ) ) ;
#156 = ORGANIZATION ( 'UNSPECIFIED', 'UNSPECIFIED', '' ) ;
#157 = PERSON_AND_ORGANIZATION_ROLE ( 'classification_officer' ) ;
#158 = COORDINATED_UNIVERSAL_TIME_OFFSET ( 1, 0, .AHEAD. ) ;
#159 = APPROVAL ( #198, 'UNSPECIFIED' ) ;
#160 = CARTESIAN_POINT ( 'NONE',  ( 1.835656933757908620E-15, -6.438617795975762161E-17, 0.5257530416491169589 ) ) ;
#161 = CARTESIAN_POINT ( 'NONE',  ( 0.0000000000000000000, 0.0000000000000000000, 0.0000000000000000000 ) ) ;
#162 = PRODUCT_DEFINITION_SHAPE ( 'NONE', 'NONE',  #114 ) ;
#163 = ADVANCED_BREP_SHAPE_REPRESENTATION ( '38093', ( #185, #44, #28 ), #1 ) ;
#164 = CARTESIAN_POINT ( 'NONE',  ( 1.319779946082704535E-13, 0.9999999999999963363, 37.79999999999999716 ) ) ;
#165 = PRODUCT_DEFINITION_FORMATION_WITH_SPECIFIED_SOURCE ( 'ANY', '', #4, .NOT_KNOWN. ) ;
#166 = EDGE_LOOP ( 'NONE', ( #118 ) ) ;
#167 = FACE_BOUND ( 'NONE', #71, .T. ) ;
#168 = DIRECTION ( 'NONE',  ( 0.0000000000000000000, 1.000000000000000000, 0.0000000000000000000 ) ) ;
#169 = ORIENTED_EDGE ( 'NONE', *, *, #219, .T. ) ;
#170 = VERTEX_POINT ( 'NONE', #107 ) ;
#171 = CARTESIAN_POINT ( 'NONE',  ( 4.189777606611760026E-14, -1.469576158976823947E-15, 12.00000000000000000 ) ) ;
#172 = CC_DESIGN_PERSON_AND_ORGANIZATION_ASSIGNMENT ( #40, #19, ( #165 ) ) ;
#173 = PERSON_AND_ORGANIZATION_ROLE ( 'creator' ) ;
#174 = PERSON_AND_ORGANIZATION ( #75, #156 ) ;
#175 = DIRECTION ( 'NONE',  ( 0.0000000000000000000, 0.0000000000000000000, 1.000000000000000000 ) ) ;
#176 = PERSON_AND_ORGANIZATION ( #75, #156 ) ;
#177 = EDGE_LOOP ( 'NONE', ( #169 ) ) ;
#178 = DIRECTION ( 'NONE',  ( 4.275831445896958607E-31, 1.000000000000000000, 1.224646799147353454E-16 ) ) ;
#179 = APPROVAL_ROLE ( '' ) ;
#180 = EDGE_LOOP ( 'NONE', ( #199 ) ) ;
#181 = FACE_OUTER_BOUND ( 'NONE', #137, .T. ) ;
#182 = ADVANCED_FACE ( 'NONE', ( #217 ), #111, .T. ) ;
#183 = LOCAL_TIME ( 15, 47, 41.00000000000000000, #207 ) ;
#184 = FACE_OUTER_BOUND ( 'NONE', #202, .T. ) ;
#185 = MANIFOLD_SOLID_BREP ( 'Corps-Déplacer/Copier1[1]', #150 ) ;
#186 = DIRECTION ( 'NONE',  ( -3.491481338843133355E-15, 1.224646799147353207E-16, -1.000000000000000000 ) ) ;
#187 = DIRECTION ( 'NONE',  ( -4.402125587170856461E-31, -1.000000000000000000, -1.239088197126299692E-16 ) ) ;
#188 = CARTESIAN_POINT ( 'NONE',  ( 4.189777606611760026E-14, 6.561449049145569559E-33, 12.00000000000000000 ) ) ;
#189 = CIRCLE ( 'NONE', #46, 0.8749999999999936717 ) ;
#190 = CARTESIAN_POINT ( 'NONE',  ( 4.189777606611760026E-14, 0.8749999999999937828, 12.00000000000000000 ) ) ;
#191 = PERSON_AND_ORGANIZATION_ROLE ( 'creator' ) ;
#192 = APPROVAL_PERSON_ORGANIZATION ( #176, #98, #100 ) ;
#193 =( NAMED_UNIT ( * ) SI_UNIT ( $, .STERADIAN. ) SOLID_ANGLE_UNIT ( ) );
#194 = EDGE_LOOP ( 'NONE', ( #23 ) ) ;
#195 = CALENDAR_DATE ( 2021, 7, 10 ) ;
#196 = PERSON_AND_ORGANIZATION ( #75, #156 ) ;
#197 = APPLICATION_CONTEXT ( 'configuration controlled 3d designs of mechanical parts and assemblies' ) ;
#198 = APPROVAL_STATUS ( 'not_yet_approved' ) ;
#199 = ORIENTED_EDGE ( 'NONE', *, *, #38, .F. ) ;
#200 = ORIENTED_EDGE ( 'NONE', *, *, #211, .F. ) ;
#201 = ADVANCED_FACE ( 'NONE', ( #76 ), #142, .T. ) ;
#202 = EDGE_LOOP ( 'NONE', ( #115 ) ) ;
#203 = AXIS2_PLACEMENT_3D ( 'NONE', #31, #186, #105 ) ;
#204 = DIRECTION ( 'NONE',  ( -3.491481338843133355E-15, 1.224646799147353207E-16, -1.000000000000000000 ) ) ;
#205 = CONICAL_SURFACE ( 'NONE', #15, 0.9999999999999970024, 0.5235987755982920433 ) ;
#206 = DIRECTION ( 'NONE',  ( 4.402125587170856461E-31, 1.000000000000000000, 1.239088197126299692E-16 ) ) ;
#207 = COORDINATED_UNIVERSAL_TIME_OFFSET ( 1, 0, .AHEAD. ) ;
#208 = DATE_AND_TIME ( #213, #123 ) ;
#209 = CIRCLE ( 'NONE', #203, 0.9999999999999970024 ) ;
#210 = APPROVAL_DATE_TIME ( #131, #72 ) ;
#211 = EDGE_CURVE ( 'NONE', #90, #90, #87, .T. ) ;
#212 = PERSON_AND_ORGANIZATION ( #75, #156 ) ;
#213 = CALENDAR_DATE ( 2021, 7, 10 ) ;
#214 = APPROVAL_DATE_TIME ( #55, #159 ) ;
#215 = SECURITY_CLASSIFICATION ( '', '', #91 ) ;
#216 = DIRECTION ( 'NONE',  ( -4.275831445896958607E-31, -1.000000000000000000, -1.224646799147353207E-16 ) ) ;
#217 = FACE_OUTER_BOUND ( 'NONE', #177, .T. ) ;
#218 = DIRECTION ( 'NONE',  ( -3.491481338843133355E-15, 1.224646799147353207E-16, -1.000000000000000000 ) ) ;
#219 = EDGE_CURVE ( 'NONE', #42, #42, #189, .T. ) ;
#220 = PLANE ( 'NONE',  #8 ) ;
#221 = FACE_OUTER_BOUND ( 'NONE', #22, .T. ) ;
#222 = AXIS2_PLACEMENT_3D ( 'NONE', #124, #73, #168 ) ;
#223 = CARTESIAN_POINT ( 'NONE',  ( 1.319779946082704535E-13, -4.629164900776995227E-15, 37.79999999999999716 ) ) ;
ENDSEC;
END-ISO-10303-21;
