ISO-10303-21;
HEADER;
FILE_DESCRIPTION (( 'STEP AP203' ),
    '1' );
FILE_NAME ('38092.step',
    '2021-10-07T13:47:40',
    ( '' ),
    ( '' ),
    'SwSTEP 2.0',
    'SolidWorks 2019',
    '' );
FILE_SCHEMA (( 'CONFIG_CONTROL_DESIGN' ));
ENDSEC;

DATA;
#1 = DIRECTION ( 'NONE',  ( -3.491481338843133355E-15, 1.224646799147353207E-16, -1.000000000000000000 ) ) ;
#2 = VERTEX_POINT ( 'NONE', #185 ) ;
#3 = APPROVAL ( #172, 'UNSPECIFIED' ) ;
#4 = CARTESIAN_POINT ( 'NONE',  ( 1.326762908760390423E-13, 0.7999999999999962697, 38.00000000000000000 ) ) ;
#5 = CONICAL_SURFACE ( 'NONE', #207, 0.8399999999999936406, 1.029744258676649649 ) ;
#6 = CALENDAR_DATE ( 2021, 7, 10 ) ;
#7 = PRODUCT_DEFINITION ( 'UNKNOWN', '', #142, #45 ) ;
#8 = CONICAL_SURFACE ( 'NONE', #135, 0.8000000000000009326, 0.7853981633974512766 ) ;
#9 = EDGE_CURVE ( 'NONE', #169, #169, #178, .T. ) ;
#10 = AXIS2_PLACEMENT_3D ( 'NONE', #181, #119, #183 ) ;
#11 = DIRECTION ( 'NONE',  ( 4.275831445896958607E-31, 1.000000000000000000, 1.224646799147353207E-16 ) ) ;
#12 = AXIS2_PLACEMENT_3D ( 'NONE', #126, #190, #31 ) ;
#13 = DIRECTION ( 'NONE',  ( 0.0000000000000000000, 1.000000000000000000, 0.0000000000000000000 ) ) ;
#14 = PLANE ( 'NONE',  #110 ) ;
#15 = EDGE_CURVE ( 'NONE', #2, #2, #38, .T. ) ;
#16 = CARTESIAN_POINT ( 'NONE',  ( 1.326762908760390423E-13, -4.653657836759941941E-15, 38.00000000000000000 ) ) ;
#17 = FACE_OUTER_BOUND ( 'NONE', #40, .T. ) ;
#18 = CLOSED_SHELL ( 'NONE', ( #195, #93, #188, #124, #104 ) ) ;
#19 = PERSON_AND_ORGANIZATION_ROLE ( 'creator' ) ;
#20 = DATE_AND_TIME ( #6, #186 ) ;
#21 = APPLICATION_PROTOCOL_DEFINITION ( 'international standard', 'config_control_design', 1994, #47 ) ;
#22 = DIRECTION ( 'NONE',  ( 1.000000000000000000, 0.0000000000000000000, 0.0000000000000000000 ) ) ;
#23 = PERSON_AND_ORGANIZATION ( #111, #63 ) ;
#24 = CARTESIAN_POINT ( 'NONE',  ( 1.762230656407592638E-15, -6.181073084136731872E-17, 0.5047229199831523294 ) ) ;
#25 = COORDINATED_UNIVERSAL_TIME_OFFSET ( 1, 0, .AHEAD. ) ;
#26 = AXIS2_PLACEMENT_3D ( 'NONE', #49, #123, #11 ) ;
#27 = PERSON_AND_ORGANIZATION_ROLE ( 'classification_officer' ) ;
#28 = EDGE_LOOP ( 'NONE', ( #217 ) ) ;
#29 = CYLINDRICAL_SURFACE ( 'NONE', #199, 0.9999999999999988898 ) ;
#30 = APPROVAL ( #211, 'UNSPECIFIED' ) ;
#31 = DIRECTION ( 'NONE',  ( 0.0000000000000000000, 1.000000000000000000, 0.0000000000000000000 ) ) ;
#32 = DIRECTION ( 'NONE',  ( 3.491481338843133355E-15, -1.224646799147353207E-16, 1.000000000000000000 ) ) ;
#33 = CARTESIAN_POINT ( 'NONE',  ( 0.0000000000000000000, 0.0000000000000000000, 0.0000000000000000000 ) ) ;
#34 = CARTESIAN_POINT ( 'NONE',  ( 4.286536375772640796E-14, 0.9999999999999954481, 12.27712812921102703 ) ) ;
#35 = PERSON_AND_ORGANIZATION_ROLE ( 'design_owner' ) ;
#36 = DIRECTION ( 'NONE',  ( 0.0000000000000000000, 0.0000000000000000000, 1.000000000000000000 ) ) ;
#37 = PERSON_AND_ORGANIZATION ( #111, #63 ) ;
#38 = CIRCLE ( 'NONE', #12, 0.8399999999999958611 ) ;
#39 = EDGE_CURVE ( 'NONE', #220, #220, #205, .T. ) ;
#40 = EDGE_LOOP ( 'NONE', ( #96 ) ) ;
#41 = PERSON_AND_ORGANIZATION_ROLE ( 'creator' ) ;
#42 =( GEOMETRIC_REPRESENTATION_CONTEXT ( 3 ) GLOBAL_UNCERTAINTY_ASSIGNED_CONTEXT ( ( #216 ) ) GLOBAL_UNIT_ASSIGNED_CONTEXT ( ( #139, #71, #189 ) ) REPRESENTATION_CONTEXT ( 'NONE', 'WORKASPACE' ) );
#43 = EDGE_LOOP ( 'NONE', ( #180 ) ) ;
#44 = CALENDAR_DATE ( 2021, 7, 10 ) ;
#45 = DESIGN_CONTEXT ( 'detailed design', #47, 'design' ) ;
#46 = APPROVAL_PERSON_ORGANIZATION ( #191, #30, #196 ) ;
#47 = APPLICATION_CONTEXT ( 'configuration controlled 3d designs of mechanical parts and assemblies' ) ;
#48 = CARTESIAN_POINT ( 'NONE',  ( 4.286536375772640796E-14, -1.503514566616021615E-15, 12.27712812921102703 ) ) ;
#49 = CARTESIAN_POINT ( 'NONE',  ( 0.0000000000000000000, 0.0000000000000000000, 0.0000000000000000000 ) ) ;
#50 = ADVANCED_BREP_SHAPE_REPRESENTATION ( '38092', ( #174, #100, #187 ), #42 ) ;
#51 = DIRECTION ( 'NONE',  ( 0.0000000000000000000, 1.000000000000000000, 0.0000000000000000000 ) ) ;
#52 = DIRECTION ( 'NONE',  ( -3.491481338843133355E-15, 1.224646799147353207E-16, -1.000000000000000000 ) ) ;
#53 = FACE_OUTER_BOUND ( 'NONE', #43, .T. ) ;
#54 = MECHANICAL_CONTEXT ( 'NONE', #197, 'mechanical' ) ;
#55 = LOCAL_TIME ( 15, 47, 40.00000000000000000, #88 ) ;
#56 = PRODUCT_DEFINITION_SHAPE ( 'NONE', 'NONE',  #7 ) ;
#57 = CC_DESIGN_PERSON_AND_ORGANIZATION_ASSIGNMENT ( #115, #41, ( #142 ) ) ;
#58 = SHAPE_DEFINITION_REPRESENTATION ( #56, #50 ) ;
#59 = CC_DESIGN_APPROVAL ( #30, ( #142 ) ) ;
#60 = EDGE_LOOP ( 'NONE', ( #175 ) ) ;
#61 = DATE_TIME_ROLE ( 'classification_date' ) ;
#62 = EDGE_LOOP ( 'NONE', ( #76 ) ) ;
#63 = ORGANIZATION ( 'UNSPECIFIED', 'UNSPECIFIED', '' ) ;
#64 = DIRECTION ( 'NONE',  ( 4.275831445896958607E-31, 1.000000000000000000, 1.224646799147353207E-16 ) ) ;
#65 = CC_DESIGN_PERSON_AND_ORGANIZATION_ASSIGNMENT ( #161, #27, ( #81 ) ) ;
#66 = FACE_BOUND ( 'NONE', #145, .T. ) ;
#67 = DIRECTION ( 'NONE',  ( -3.491481338843133355E-15, 1.224646799147353207E-16, -1.000000000000000000 ) ) ;
#68 = CYLINDRICAL_SURFACE ( 'NONE', #26, 0.8399999999999948619 ) ;
#69 = CC_DESIGN_SECURITY_CLASSIFICATION ( #81, ( #142 ) ) ;
#70 = DIRECTION ( 'NONE',  ( -3.491481338843133355E-15, 1.224646799147353207E-16, -1.000000000000000000 ) ) ;
#71 =( NAMED_UNIT ( * ) PLANE_ANGLE_UNIT ( ) SI_UNIT ( $, .RADIAN. ) );
#72 = AXIS2_PLACEMENT_3D ( 'NONE', #201, #150, #222 ) ;
#73 = ADVANCED_FACE ( 'NONE', ( #184 ), #204, .T. ) ;
#74 = LOCAL_TIME ( 15, 47, 40.00000000000000000, #25 ) ;
#75 = PERSON_AND_ORGANIZATION_ROLE ( 'design_supplier' ) ;
#76 = ORIENTED_EDGE ( 'NONE', *, *, #162, .F. ) ;
#77 = ORIENTED_EDGE ( 'NONE', *, *, #9, .F. ) ;
#78 = APPROVAL_STATUS ( 'not_yet_approved' ) ;
#79 = CC_DESIGN_DATE_AND_TIME_ASSIGNMENT ( #177, #61, ( #81 ) ) ;
#80 = VERTEX_POINT ( 'NONE', #149 ) ;
#81 = SECURITY_CLASSIFICATION ( '', '', #112 ) ;
#82 = DIRECTION ( 'NONE',  ( 0.0000000000000000000, 1.000000000000000000, 0.0000000000000000000 ) ) ;
#83 = CARTESIAN_POINT ( 'NONE',  ( 1.326762908760390423E-13, 5.999039130647367482E-33, 38.00000000000000000 ) ) ;
#84 = CARTESIAN_POINT ( 'NONE',  ( 1.326762908760390423E-13, -4.653657836759941941E-15, 38.00000000000000000 ) ) ;
#85 = CC_DESIGN_DATE_AND_TIME_ASSIGNMENT ( #148, #127, ( #7 ) ) ;
#86 = CIRCLE ( 'NONE', #72, 1.000000000000000888 ) ;
#87 = DIRECTION ( 'NONE',  ( -4.275831445896958607E-31, -1.000000000000000000, -1.224646799147353207E-16 ) ) ;
#88 = COORDINATED_UNIVERSAL_TIME_OFFSET ( 1, 0, .AHEAD. ) ;
#89 = APPROVAL_ROLE ( '' ) ;
#90 = AXIS2_PLACEMENT_3D ( 'NONE', #83, #52, #64 ) ;
#91 = PRODUCT ( '38092', '38092', '', ( #54 ) ) ;
#92 = CC_DESIGN_APPROVAL ( #3, ( #7 ) ) ;
#93 = ADVANCED_FACE ( 'NONE', ( #66, #17 ), #95, .T. ) ;
#94 = ORIENTED_EDGE ( 'NONE', *, *, #9, .T. ) ;
#95 = CONICAL_SURFACE ( 'NONE', #116, 0.9999999999999970024, 0.5235987755982913772 ) ;
#96 = ORIENTED_EDGE ( 'NONE', *, *, #39, .T. ) ;
#97 = ORIENTED_EDGE ( 'NONE', *, *, #39, .F. ) ;
#98 = FACE_OUTER_BOUND ( 'NONE', #28, .T. ) ;
#99 = DIRECTION ( 'NONE',  ( 4.275831445896957731E-31, 1.000000000000000000, 1.224646799147353454E-16 ) ) ;
#100 = MANIFOLD_SOLID_BREP ( 'Corps-Déplacer/Copier1[2]', #170 ) ;
#101 = DIRECTION ( 'NONE',  ( 0.0000000000000000000, -1.000000000000000000, 0.0000000000000000000 ) ) ;
#102 = DIRECTION ( 'NONE',  ( -3.491481338843133355E-15, 1.224646799147353207E-16, -1.000000000000000000 ) ) ;
#103 = DIRECTION ( 'NONE',  ( -3.491481338843133355E-15, 1.224646799147353207E-16, -1.000000000000000000 ) ) ;
#104 = ADVANCED_FACE ( 'NONE', ( #118 ), #168, .F. ) ;
#105 = PERSON_AND_ORGANIZATION ( #111, #63 ) ;
#106 = APPLICATION_PROTOCOL_DEFINITION ( 'international standard', 'config_control_design', 1994, #197 ) ;
#107 = COORDINATED_UNIVERSAL_TIME_OFFSET ( 1, 0, .AHEAD. ) ;
#108 = AXIS2_PLACEMENT_3D ( 'NONE', #48, #70, #13 ) ;
#109 = EDGE_LOOP ( 'NONE', ( #94 ) ) ;
#110 = AXIS2_PLACEMENT_3D ( 'NONE', #152, #202, #87 ) ;
#111 = PERSON ( 'UNSPECIFIED', 'UNSPECIFIED', 'UNSPECIFIED', ('UNSPECIFIED'), ('UNSPECIFIED'), ('UNSPECIFIED') ) ;
#112 = SECURITY_CLASSIFICATION_LEVEL ( 'unclassified' ) ;
#113 = CALENDAR_DATE ( 2021, 7, 10 ) ;
#114 = EDGE_LOOP ( 'NONE', ( #160 ) ) ;
#115 = PERSON_AND_ORGANIZATION ( #111, #63 ) ;
#116 = AXIS2_PLACEMENT_3D ( 'NONE', #200, #32, #101 ) ;
#117 = ORIENTED_EDGE ( 'NONE', *, *, #203, .F. ) ;
#118 = FACE_OUTER_BOUND ( 'NONE', #62, .T. ) ;
#119 = DIRECTION ( 'NONE',  ( 3.491481338843133355E-15, -1.224646799147353207E-16, 1.000000000000000000 ) ) ;
#120 = AXIS2_PLACEMENT_3D ( 'NONE', #84, #103, #153 ) ;
#121 = FACE_OUTER_BOUND ( 'NONE', #109, .T. ) ;
#122 = DIRECTION ( 'NONE',  ( 3.491481338843133355E-15, -1.224646799147353207E-16, 1.000000000000000000 ) ) ;
#123 = DIRECTION ( 'NONE',  ( -3.491481338843133355E-15, 1.224646799147353207E-16, -1.000000000000000000 ) ) ;
#124 = ADVANCED_FACE ( 'NONE', ( #53, #167 ), #8, .T. ) ;
#125 = CC_DESIGN_APPROVAL ( #212, ( #81 ) ) ;
#126 = CARTESIAN_POINT ( 'NONE',  ( 4.189777606611760026E-14, -1.469576158976823947E-15, 12.00000000000000000 ) ) ;
#127 = DATE_TIME_ROLE ( 'creation_date' ) ;
#128 = EDGE_CURVE ( 'NONE', #80, #80, #86, .T. ) ;
#129 = AXIS2_PLACEMENT_3D ( 'NONE', #136, #102, #51 ) ;
#130 = DATE_AND_TIME ( #209, #193 ) ;
#131 = ORIENTED_EDGE ( 'NONE', *, *, #203, .T. ) ;
#132 = DIRECTION ( 'NONE',  ( -4.585547486636310456E-31, -1.000000000000000000, -1.290716872006562641E-16 ) ) ;
#133 = CC_DESIGN_PERSON_AND_ORGANIZATION_ASSIGNMENT ( #171, #19, ( #7 ) ) ;
#134 = FACE_OUTER_BOUND ( 'NONE', #210, .T. ) ;
#135 = AXIS2_PLACEMENT_3D ( 'NONE', #16, #1, #82 ) ;
#136 = CARTESIAN_POINT ( 'NONE',  ( 4.189777606611760026E-14, -1.469576158976823947E-15, 12.00000000000000000 ) ) ;
#137 = FACE_OUTER_BOUND ( 'NONE', #114, .T. ) ;
#138 = CIRCLE ( 'NONE', #129, 0.8399999999999958611 ) ;
#139 =( LENGTH_UNIT ( ) NAMED_UNIT ( * ) SI_UNIT ( .MILLI., .METRE. ) );
#140 = VERTEX_POINT ( 'NONE', #206 ) ;
#141 = PRODUCT_RELATED_PRODUCT_CATEGORY ( 'detail', '', ( #91 ) ) ;
#142 = PRODUCT_DEFINITION_FORMATION_WITH_SPECIFIED_SOURCE ( 'ANY', '', #91, .NOT_KNOWN. ) ;
#143 = COORDINATED_UNIVERSAL_TIME_OFFSET ( 1, 0, .AHEAD. ) ;
#144 = APPROVAL_DATE_TIME ( #215, #30 ) ;
#145 = EDGE_LOOP ( 'NONE', ( #194 ) ) ;
#146 = APPROVAL_PERSON_ORGANIZATION ( #105, #3, #89 ) ;
#147 = DIRECTION ( 'NONE',  ( -3.491481338843133355E-15, 1.224646799147353207E-16, -1.000000000000000000 ) ) ;
#148 = DATE_AND_TIME ( #158, #55 ) ;
#149 = CARTESIAN_POINT ( 'NONE',  ( 1.319779946082704535E-13, 0.9999999999999963363, 37.79999999999999716 ) ) ;
#150 = DIRECTION ( 'NONE',  ( -3.491481338843133355E-15, 1.224646799147353207E-16, -1.000000000000000000 ) ) ;
#151 = ADVANCED_FACE ( 'NONE', ( #121 ), #5, .T. ) ;
#152 = CARTESIAN_POINT ( 'NONE',  ( 4.189777606611760026E-14, 6.298991087179748036E-33, 12.00000000000000000 ) ) ;
#153 = DIRECTION ( 'NONE',  ( 0.0000000000000000000, 1.000000000000000000, 0.0000000000000000000 ) ) ;
#154 = CARTESIAN_POINT ( 'NONE',  ( 1.762230656407593032E-15, 0.8399999999999935296, 0.5047229199831524404 ) ) ;
#155 = CC_DESIGN_PERSON_AND_ORGANIZATION_ASSIGNMENT ( #37, #35, ( #91 ) ) ;
#156 = VERTEX_POINT ( 'NONE', #4 ) ;
#157 = CARTESIAN_POINT ( 'NONE',  ( 0.0000000000000000000, 0.0000000000000000000, 0.0000000000000000000 ) ) ;
#158 = CALENDAR_DATE ( 2021, 7, 10 ) ;
#159 = PERSON_AND_ORGANIZATION ( #111, #63 ) ;
#160 = ORIENTED_EDGE ( 'NONE', *, *, #15, .T. ) ;
#161 = PERSON_AND_ORGANIZATION ( #111, #63 ) ;
#162 = EDGE_CURVE ( 'NONE', #156, #156, #192, .T. ) ;
#163 = EDGE_LOOP ( 'NONE', ( #97 ) ) ;
#164 = ADVANCED_FACE ( 'NONE', ( #134, #182 ), #68, .T. ) ;
#165 = FACE_OUTER_BOUND ( 'NONE', #163, .T. ) ;
#166 = AXIS2_PLACEMENT_3D ( 'NONE', #24, #147, #214 ) ;
#167 = FACE_BOUND ( 'NONE', #60, .T. ) ;
#168 = PLANE ( 'NONE',  #90 ) ;
#169 = VERTEX_POINT ( 'NONE', #154 ) ;
#170 = CLOSED_SHELL ( 'NONE', ( #151, #164, #73 ) ) ;
#171 = PERSON_AND_ORGANIZATION ( #111, #63 ) ;
#172 = APPROVAL_STATUS ( 'not_yet_approved' ) ;
#173 = APPROVAL_DATE_TIME ( #20, #3 ) ;
#174 = MANIFOLD_SOLID_BREP ( 'Corps-Déplacer/Copier1[1]', #18 ) ;
#175 = ORIENTED_EDGE ( 'NONE', *, *, #162, .T. ) ;
#176 = COORDINATED_UNIVERSAL_TIME_OFFSET ( 1, 0, .AHEAD. ) ;
#177 = DATE_AND_TIME ( #113, #74 ) ;
#178 = CIRCLE ( 'NONE', #166, 0.8399999999999936406 ) ;
#179 = APPROVAL_DATE_TIME ( #130, #212 ) ;
#180 = ORIENTED_EDGE ( 'NONE', *, *, #128, .F. ) ;
#181 = CARTESIAN_POINT ( 'NONE',  ( 4.189777606611760026E-14, 6.298991087179748036E-33, 12.00000000000000000 ) ) ;
#182 = FACE_OUTER_BOUND ( 'NONE', #208, .T. ) ;
#183 = DIRECTION ( 'NONE',  ( -4.275831445896958607E-31, -1.000000000000000000, -1.224646799147353207E-16 ) ) ;
#184 = FACE_OUTER_BOUND ( 'NONE', #213, .T. ) ;
#185 = CARTESIAN_POINT ( 'NONE',  ( 4.189777606611760026E-14, 0.8399999999999944178, 12.00000000000000000 ) ) ;
#186 = LOCAL_TIME ( 15, 47, 40.00000000000000000, #107 ) ;
#187 = AXIS2_PLACEMENT_3D ( 'NONE', #157, #36, #22 ) ;
#188 = ADVANCED_FACE ( 'NONE', ( #165, #98 ), #29, .T. ) ;
#189 =( NAMED_UNIT ( * ) SI_UNIT ( $, .STERADIAN. ) SOLID_ANGLE_UNIT ( ) );
#190 = DIRECTION ( 'NONE',  ( -3.491481338843133355E-15, 1.224646799147353207E-16, -1.000000000000000000 ) ) ;
#191 = PERSON_AND_ORGANIZATION ( #111, #63 ) ;
#192 = CIRCLE ( 'NONE', #120, 0.8000000000000009326 ) ;
#193 = LOCAL_TIME ( 15, 47, 40.00000000000000000, #176 ) ;
#194 = ORIENTED_EDGE ( 'NONE', *, *, #15, .F. ) ;
#195 = ADVANCED_FACE ( 'NONE', ( #137 ), #14, .F. ) ;
#196 = APPROVAL_ROLE ( '' ) ;
#197 = APPLICATION_CONTEXT ( 'configuration controlled 3d designs of mechanical parts and assemblies' ) ;
#198 = APPROVAL_ROLE ( '' ) ;
#199 = AXIS2_PLACEMENT_3D ( 'NONE', #33, #67, #99 ) ;
#200 = CARTESIAN_POINT ( 'NONE',  ( 4.286536375772640796E-14, -1.503514566616021615E-15, 12.27712812921102703 ) ) ;
#201 = CARTESIAN_POINT ( 'NONE',  ( 1.319779946082704535E-13, -4.629164900776995227E-15, 37.79999999999999716 ) ) ;
#202 = DIRECTION ( 'NONE',  ( 3.491481338843133355E-15, -1.224646799147353207E-16, 1.000000000000000000 ) ) ;
#203 = EDGE_CURVE ( 'NONE', #140, #140, #138, .T. ) ;
#204 = PLANE ( 'NONE',  #10 ) ;
#205 = CIRCLE ( 'NONE', #108, 0.9999999999999970024 ) ;
#206 = CARTESIAN_POINT ( 'NONE',  ( 4.189777606611760026E-14, 0.8399999999999944178, 12.00000000000000000 ) ) ;
#207 = AXIS2_PLACEMENT_3D ( 'NONE', #223, #122, #132 ) ;
#208 = EDGE_LOOP ( 'NONE', ( #131 ) ) ;
#209 = CALENDAR_DATE ( 2021, 7, 10 ) ;
#210 = EDGE_LOOP ( 'NONE', ( #77 ) ) ;
#211 = APPROVAL_STATUS ( 'not_yet_approved' ) ;
#212 = APPROVAL ( #78, 'UNSPECIFIED' ) ;
#213 = EDGE_LOOP ( 'NONE', ( #117 ) ) ;
#214 = DIRECTION ( 'NONE',  ( 4.585547486636310456E-31, 1.000000000000000000, 1.290716872006562641E-16 ) ) ;
#215 = DATE_AND_TIME ( #44, #218 ) ;
#216 = UNCERTAINTY_MEASURE_WITH_UNIT (LENGTH_MEASURE( 1.000000000000000082E-05 ), #139, 'distance_accuracy_value', 'NONE');
#217 = ORIENTED_EDGE ( 'NONE', *, *, #128, .T. ) ;
#218 = LOCAL_TIME ( 15, 47, 40.00000000000000000, #143 ) ;
#219 = CC_DESIGN_PERSON_AND_ORGANIZATION_ASSIGNMENT ( #159, #75, ( #142 ) ) ;
#220 = VERTEX_POINT ( 'NONE', #34 ) ;
#221 = APPROVAL_PERSON_ORGANIZATION ( #23, #212, #198 ) ;
#222 = DIRECTION ( 'NONE',  ( 0.0000000000000000000, 1.000000000000000000, 0.0000000000000000000 ) ) ;
#223 = CARTESIAN_POINT ( 'NONE',  ( 1.762230656407592638E-15, -6.181073084136731872E-17, 0.5047229199831523294 ) ) ;
ENDSEC;
END-ISO-10303-21;
