ISO-10303-21;
HEADER;
FILE_DESCRIPTION (( 'STEP AP203' ),
    '1' );
FILE_NAME ('38090.step',
    '2021-10-07T13:47:39',
    ( '' ),
    ( '' ),
    'SwSTEP 2.0',
    'SolidWorks 2019',
    '' );
FILE_SCHEMA (( 'CONFIG_CONTROL_DESIGN' ));
ENDSEC;

DATA;
#1 = DIRECTION ( 'NONE',  ( -3.491481338843133355E-15, 1.224646799147353207E-16, -1.000000000000000000 ) ) ;
#2 = AXIS2_PLACEMENT_3D ( 'NONE', #118, #212, #198 ) ;
#3 = VERTEX_POINT ( 'NONE', #71 ) ;
#4 = ADVANCED_FACE ( 'NONE', ( #215, #59 ), #111, .T. ) ;
#5 = DATE_AND_TIME ( #24, #219 ) ;
#6 = CIRCLE ( 'NONE', #129, 0.9999999999999970024 ) ;
#7 = APPROVAL_STATUS ( 'not_yet_approved' ) ;
#8 = CC_DESIGN_APPROVAL ( #127, ( #39 ) ) ;
#9 = APPROVAL_PERSON_ORGANIZATION ( #114, #206, #172 ) ;
#10 = COORDINATED_UNIVERSAL_TIME_OFFSET ( 1, 0, .AHEAD. ) ;
#11 = ADVANCED_FACE ( 'NONE', ( #202, #174 ), #124, .T. ) ;
#12 = ORIENTED_EDGE ( 'NONE', *, *, #162, .F. ) ;
#13 = PERSON_AND_ORGANIZATION_ROLE ( 'design_supplier' ) ;
#14 = AXIS2_PLACEMENT_3D ( 'NONE', #48, #1, #210 ) ;
#15 = DIRECTION ( 'NONE',  ( 4.275831445896957731E-31, 1.000000000000000000, 1.224646799147353207E-16 ) ) ;
#16 = ADVANCED_FACE ( 'NONE', ( #211 ), #208, .T. ) ;
#17 = DIRECTION ( 'NONE',  ( 4.970141791967101175E-31, 1.000000000000000000, 1.398970545142597881E-16 ) ) ;
#18 = AXIS2_PLACEMENT_3D ( 'NONE', #121, #159, #34 ) ;
#19 = CARTESIAN_POINT ( 'NONE',  ( 1.326762908760390423E-13, 5.999039130647367482E-33, 38.00000000000000000 ) ) ;
#20 = PLANE ( 'NONE',  #214 ) ;
#21 = FACE_OUTER_BOUND ( 'NONE', #113, .T. ) ;
#22 = FACE_BOUND ( 'NONE', #150, .T. ) ;
#23 = VERTEX_POINT ( 'NONE', #166 ) ;
#24 = CALENDAR_DATE ( 2021, 7, 10 ) ;
#25 = MECHANICAL_CONTEXT ( 'NONE', #96, 'mechanical' ) ;
#26 = AXIS2_PLACEMENT_3D ( 'NONE', #197, #158, #35 ) ;
#27 = DIRECTION ( 'NONE',  ( 1.000000000000000000, 0.0000000000000000000, 0.0000000000000000000 ) ) ;
#28 = MANIFOLD_SOLID_BREP ( 'Corps-Déplacer/Copier1[1]', #109 ) ;
#29 = PRODUCT_RELATED_PRODUCT_CATEGORY ( 'detail', '', ( #110 ) ) ;
#30 = ORIENTED_EDGE ( 'NONE', *, *, #167, .F. ) ;
#31 = EDGE_LOOP ( 'NONE', ( #47 ) ) ;
#32 = DIRECTION ( 'NONE',  ( -3.491481338843133355E-15, 1.224646799147353207E-16, -1.000000000000000000 ) ) ;
#33 = CARTESIAN_POINT ( 'NONE',  ( 4.325844625744248352E-14, 0.9999999999999954481, 12.38971143170300593 ) ) ;
#34 = DIRECTION ( 'NONE',  ( -4.275831445896958607E-31, -1.000000000000000000, -1.224646799147353207E-16 ) ) ;
#35 = DIRECTION ( 'NONE',  ( 0.0000000000000000000, 1.000000000000000000, 0.0000000000000000000 ) ) ;
#36 = CARTESIAN_POINT ( 'NONE',  ( 1.326762908760390423E-13, -4.653657836759941941E-15, 38.00000000000000000 ) ) ;
#37 = SECURITY_CLASSIFICATION ( '', '', #40 ) ;
#38 = PERSON_AND_ORGANIZATION ( #131, #148 ) ;
#39 = PRODUCT_DEFINITION ( 'UNKNOWN', '', #157, #58 ) ;
#40 = SECURITY_CLASSIFICATION_LEVEL ( 'unclassified' ) ;
#41 = CIRCLE ( 'NONE', #141, 0.7749999999999951372 ) ;
#42 = ORIENTED_EDGE ( 'NONE', *, *, #117, .T. ) ;
#43 = ORIENTED_EDGE ( 'NONE', *, *, #201, .T. ) ;
#44 = CALENDAR_DATE ( 2021, 7, 10 ) ;
#45 = EDGE_LOOP ( 'NONE', ( #43 ) ) ;
#46 = COORDINATED_UNIVERSAL_TIME_OFFSET ( 1, 0, .AHEAD. ) ;
#47 = ORIENTED_EDGE ( 'NONE', *, *, #162, .T. ) ;
#48 = CARTESIAN_POINT ( 'NONE',  ( 1.326762908760390423E-13, -4.653657836759941941E-15, 38.00000000000000000 ) ) ;
#49 = FACE_BOUND ( 'NONE', #149, .T. ) ;
#50 = CC_DESIGN_PERSON_AND_ORGANIZATION_ASSIGNMENT ( #38, #72, ( #110 ) ) ;
#51 = DIRECTION ( 'NONE',  ( 0.0000000000000000000, 1.000000000000000000, 0.0000000000000000000 ) ) ;
#52 = CARTESIAN_POINT ( 'NONE',  ( 4.325844625744248352E-14, -1.517302044719445810E-15, 12.38971143170300593 ) ) ;
#53 = ADVANCED_FACE ( 'NONE', ( #222 ), #20, .F. ) ;
#54 = DIRECTION ( 'NONE',  ( -3.491481338843133355E-15, 1.224646799147353207E-16, -1.000000000000000000 ) ) ;
#55 = APPLICATION_PROTOCOL_DEFINITION ( 'international standard', 'config_control_design', 1994, #96 ) ;
#56 = AXIS2_PLACEMENT_3D ( 'NONE', #195, #160, #70 ) ;
#57 = EDGE_CURVE ( 'NONE', #161, #161, #67, .T. ) ;
#58 = DESIGN_CONTEXT ( 'detailed design', #61, 'design' ) ;
#59 = FACE_OUTER_BOUND ( 'NONE', #133, .T. ) ;
#60 = ORIENTED_EDGE ( 'NONE', *, *, #201, .F. ) ;
#61 = APPLICATION_CONTEXT ( 'configuration controlled 3d designs of mechanical parts and assemblies' ) ;
#62 = DATE_TIME_ROLE ( 'classification_date' ) ;
#63 = CC_DESIGN_PERSON_AND_ORGANIZATION_ASSIGNMENT ( #126, #199, ( #39 ) ) ;
#64 = DATE_TIME_ROLE ( 'creation_date' ) ;
#65 = SHAPE_DEFINITION_REPRESENTATION ( #165, #102 ) ;
#66 = CIRCLE ( 'NONE', #56, 0.7749999999999951372 ) ;
#67 = CIRCLE ( 'NONE', #14, 0.8000000000000009326 ) ;
#68 = DIRECTION ( 'NONE',  ( 0.0000000000000000000, 1.000000000000000000, 0.0000000000000000000 ) ) ;
#69 = CARTESIAN_POINT ( 'NONE',  ( 1.326762908760390423E-13, 0.7999999999999962697, 38.00000000000000000 ) ) ;
#70 = DIRECTION ( 'NONE',  ( 0.0000000000000000000, 1.000000000000000000, 0.0000000000000000000 ) ) ;
#71 = CARTESIAN_POINT ( 'NONE',  ( 1.625867569899861182E-15, 0.7749999999999934719, 0.4656669797463605098 ) ) ;
#72 = PERSON_AND_ORGANIZATION_ROLE ( 'design_owner' ) ;
#73 = CLOSED_SHELL ( 'NONE', ( #171, #4, #16 ) ) ;
#74 = COORDINATED_UNIVERSAL_TIME_OFFSET ( 1, 0, .AHEAD. ) ;
#75 = APPROVAL_PERSON_ORGANIZATION ( #164, #127, #179 ) ;
#76 = CC_DESIGN_DATE_AND_TIME_ASSIGNMENT ( #207, #62, ( #37 ) ) ;
#77 = ORIENTED_EDGE ( 'NONE', *, *, #57, .T. ) ;
#78 = EDGE_LOOP ( 'NONE', ( #135 ) ) ;
#79 = PERSON_AND_ORGANIZATION ( #131, #148 ) ;
#80 = CARTESIAN_POINT ( 'NONE',  ( 0.0000000000000000000, 0.0000000000000000000, 0.0000000000000000000 ) ) ;
#81 = PERSON_AND_ORGANIZATION_ROLE ( 'creator' ) ;
#82 = APPROVAL ( #112, 'UNSPECIFIED' ) ;
#83 = CALENDAR_DATE ( 2021, 7, 10 ) ;
#84 = FACE_OUTER_BOUND ( 'NONE', #45, .T. ) ;
#85 = APPROVAL_PERSON_ORGANIZATION ( #155, #82, #191 ) ;
#86 = FACE_OUTER_BOUND ( 'NONE', #78, .T. ) ;
#87 = DIRECTION ( 'NONE',  ( 4.275831445896957731E-31, 1.000000000000000000, 1.224646799147353454E-16 ) ) ;
#88 = DIRECTION ( 'NONE',  ( 3.491481338843133355E-15, -1.224646799147353207E-16, 1.000000000000000000 ) ) ;
#89 = AXIS2_PLACEMENT_3D ( 'NONE', #223, #139, #17 ) ;
#90 = CARTESIAN_POINT ( 'NONE',  ( 0.0000000000000000000, 0.0000000000000000000, 0.0000000000000000000 ) ) ;
#91 =( NAMED_UNIT ( * ) SI_UNIT ( $, .STERADIAN. ) SOLID_ANGLE_UNIT ( ) );
#92 = AXIS2_PLACEMENT_3D ( 'NONE', #80, #170, #15 ) ;
#93 = AXIS2_PLACEMENT_3D ( 'NONE', #36, #54, #51 ) ;
#94 = PERSON_AND_ORGANIZATION_ROLE ( 'classification_officer' ) ;
#95 = EDGE_LOOP ( 'NONE', ( #169 ) ) ;
#96 = APPLICATION_CONTEXT ( 'configuration controlled 3d designs of mechanical parts and assemblies' ) ;
#97 = ADVANCED_FACE ( 'NONE', ( #103 ), #104, .F. ) ;
#98 = PERSON_AND_ORGANIZATION ( #131, #148 ) ;
#99 = EDGE_LOOP ( 'NONE', ( #30 ) ) ;
#100 = VERTEX_POINT ( 'NONE', #119 ) ;
#101 = CONICAL_SURFACE ( 'NONE', #178, 0.7749999999999935829, 1.029744258676649649 ) ;
#102 = ADVANCED_BREP_SHAPE_REPRESENTATION ( '38090', ( #28, #183, #188 ), #216 ) ;
#103 = FACE_OUTER_BOUND ( 'NONE', #31, .T. ) ;
#104 = PLANE ( 'NONE',  #2 ) ;
#105 = DIRECTION ( 'NONE',  ( 0.0000000000000000000, -1.000000000000000000, 0.0000000000000000000 ) ) ;
#106 = LOCAL_TIME ( 15, 47, 39.00000000000000000, #74 ) ;
#107 = DIRECTION ( 'NONE',  ( -3.491481338843133355E-15, 1.224646799147353207E-16, -1.000000000000000000 ) ) ;
#108 = COORDINATED_UNIVERSAL_TIME_OFFSET ( 1, 0, .AHEAD. ) ;
#109 = CLOSED_SHELL ( 'NONE', ( #97, #217, #11, #134, #53 ) ) ;
#110 = PRODUCT ( '38090', '38090', '', ( #25 ) ) ;
#111 = CYLINDRICAL_SURFACE ( 'NONE', #92, 0.7749999999999943601 ) ;
#112 = APPROVAL_STATUS ( 'not_yet_approved' ) ;
#113 = EDGE_LOOP ( 'NONE', ( #42 ) ) ;
#114 = PERSON_AND_ORGANIZATION ( #131, #148 ) ;
#115 = AXIS2_PLACEMENT_3D ( 'NONE', #143, #220, #105 ) ;
#116 = ORIENTED_EDGE ( 'NONE', *, *, #209, .T. ) ;
#117 = EDGE_CURVE ( 'NONE', #3, #3, #144, .T. ) ;
#118 = CARTESIAN_POINT ( 'NONE',  ( 4.189777606611760026E-14, 5.811569157814638703E-33, 12.00000000000000000 ) ) ;
#119 = CARTESIAN_POINT ( 'NONE',  ( 4.189777606611760026E-14, 0.7749999999999935829, 12.00000000000000000 ) ) ;
#120 = CONICAL_SURFACE ( 'NONE', #93, 0.8000000000000009326, 0.7853981633974512766 ) ;
#121 = CARTESIAN_POINT ( 'NONE',  ( 4.189777606611760026E-14, 5.811569157814638703E-33, 12.00000000000000000 ) ) ;
#122 = CC_DESIGN_PERSON_AND_ORGANIZATION_ASSIGNMENT ( #79, #94, ( #37 ) ) ;
#123 = DIRECTION ( 'NONE',  ( -3.491481338843133355E-15, 1.224646799147353207E-16, -1.000000000000000000 ) ) ;
#124 = CYLINDRICAL_SURFACE ( 'NONE', #204, 0.9999999999999988898 ) ;
#125 = CC_DESIGN_APPROVAL ( #82, ( #37 ) ) ;
#126 = PERSON_AND_ORGANIZATION ( #131, #148 ) ;
#127 = APPROVAL ( #7, 'UNSPECIFIED' ) ;
#128 = CARTESIAN_POINT ( 'NONE',  ( 0.0000000000000000000, 0.0000000000000000000, 0.0000000000000000000 ) ) ;
#129 = AXIS2_PLACEMENT_3D ( 'NONE', #52, #123, #68 ) ;
#130 = CIRCLE ( 'NONE', #26, 1.000000000000000888 ) ;
#131 = PERSON ( 'UNSPECIFIED', 'UNSPECIFIED', 'UNSPECIFIED', ('UNSPECIFIED'), ('UNSPECIFIED'), ('UNSPECIFIED') ) ;
#132 = PERSON_AND_ORGANIZATION ( #131, #148 ) ;
#133 = EDGE_LOOP ( 'NONE', ( #153 ) ) ;
#134 = ADVANCED_FACE ( 'NONE', ( #86, #22 ), #120, .T. ) ;
#135 = ORIENTED_EDGE ( 'NONE', *, *, #209, .F. ) ;
#136 = CC_DESIGN_APPROVAL ( #206, ( #157 ) ) ;
#137 = VERTEX_POINT ( 'NONE', #192 ) ;
#138 = DIRECTION ( 'NONE',  ( -4.970141791967101175E-31, -1.000000000000000000, -1.398970545142597881E-16 ) ) ;
#139 = DIRECTION ( 'NONE',  ( -3.491481338843133355E-15, 1.224646799147353207E-16, -1.000000000000000000 ) ) ;
#140 = CC_DESIGN_PERSON_AND_ORGANIZATION_ASSIGNMENT ( #132, #81, ( #157 ) ) ;
#141 = AXIS2_PLACEMENT_3D ( 'NONE', #177, #32, #175 ) ;
#142 = DIRECTION ( 'NONE',  ( -3.491481338843133355E-15, 1.224646799147353207E-16, -1.000000000000000000 ) ) ;
#143 = CARTESIAN_POINT ( 'NONE',  ( 4.325844625744248352E-14, -1.517302044719445810E-15, 12.38971143170300593 ) ) ;
#144 = CIRCLE ( 'NONE', #89, 0.7749999999999935829 ) ;
#145 =( LENGTH_UNIT ( ) NAMED_UNIT ( * ) SI_UNIT ( .MILLI., .METRE. ) );
#146 = CALENDAR_DATE ( 2021, 7, 10 ) ;
#147 = UNCERTAINTY_MEASURE_WITH_UNIT (LENGTH_MEASURE( 1.000000000000000082E-05 ), #145, 'distance_accuracy_value', 'NONE');
#148 = ORGANIZATION ( 'UNSPECIFIED', 'UNSPECIFIED', '' ) ;
#149 = EDGE_LOOP ( 'NONE', ( #12 ) ) ;
#150 = EDGE_LOOP ( 'NONE', ( #77 ) ) ;
#151 = CONICAL_SURFACE ( 'NONE', #115, 0.9999999999999970024, 0.5235987755982931535 ) ;
#152 = LOCAL_TIME ( 15, 47, 39.00000000000000000, #186 ) ;
#153 = ORIENTED_EDGE ( 'NONE', *, *, #167, .T. ) ;
#154 = APPROVAL_DATE_TIME ( #168, #82 ) ;
#155 = PERSON_AND_ORGANIZATION ( #131, #148 ) ;
#156 = DIRECTION ( 'NONE',  ( 4.275831445896958607E-31, 1.000000000000000000, 1.224646799147353207E-16 ) ) ;
#157 = PRODUCT_DEFINITION_FORMATION_WITH_SPECIFIED_SOURCE ( 'ANY', '', #110, .NOT_KNOWN. ) ;
#158 = DIRECTION ( 'NONE',  ( -3.491481338843133355E-15, 1.224646799147353207E-16, -1.000000000000000000 ) ) ;
#159 = DIRECTION ( 'NONE',  ( 3.491481338843133355E-15, -1.224646799147353207E-16, 1.000000000000000000 ) ) ;
#160 = DIRECTION ( 'NONE',  ( -3.491481338843133355E-15, 1.224646799147353207E-16, -1.000000000000000000 ) ) ;
#161 = VERTEX_POINT ( 'NONE', #69 ) ;
#162 = EDGE_CURVE ( 'NONE', #137, #137, #41, .T. ) ;
#163 = APPROVAL_DATE_TIME ( #213, #127 ) ;
#164 = PERSON_AND_ORGANIZATION ( #131, #148 ) ;
#165 = PRODUCT_DEFINITION_SHAPE ( 'NONE', 'NONE',  #39 ) ;
#166 = CARTESIAN_POINT ( 'NONE',  ( 1.319779946082704535E-13, 0.9999999999999963363, 37.79999999999999716 ) ) ;
#167 = EDGE_CURVE ( 'NONE', #100, #100, #66, .T. ) ;
#168 = DATE_AND_TIME ( #83, #152 ) ;
#169 = ORIENTED_EDGE ( 'NONE', *, *, #57, .F. ) ;
#170 = DIRECTION ( 'NONE',  ( -3.491481338843133355E-15, 1.224646799147353207E-16, -1.000000000000000000 ) ) ;
#171 = ADVANCED_FACE ( 'NONE', ( #21 ), #101, .T. ) ;
#172 = APPROVAL_ROLE ( '' ) ;
#173 = EDGE_LOOP ( 'NONE', ( #185 ) ) ;
#174 = FACE_OUTER_BOUND ( 'NONE', #187, .T. ) ;
#175 = DIRECTION ( 'NONE',  ( 0.0000000000000000000, 1.000000000000000000, 0.0000000000000000000 ) ) ;
#176 = CARTESIAN_POINT ( 'NONE',  ( 1.625867569899860788E-15, -5.702775762149956404E-17, 0.4656669797463603988 ) ) ;
#177 = CARTESIAN_POINT ( 'NONE',  ( 4.189777606611760026E-14, -1.469576158976823947E-15, 12.00000000000000000 ) ) ;
#178 = AXIS2_PLACEMENT_3D ( 'NONE', #176, #88, #138 ) ;
#179 = APPROVAL_ROLE ( '' ) ;
#180 = DIRECTION ( 'NONE',  ( 0.0000000000000000000, 0.0000000000000000000, 1.000000000000000000 ) ) ;
#181 = CC_DESIGN_DATE_AND_TIME_ASSIGNMENT ( #5, #64, ( #39 ) ) ;
#182 = APPLICATION_PROTOCOL_DEFINITION ( 'international standard', 'config_control_design', 1994, #61 ) ;
#183 = MANIFOLD_SOLID_BREP ( 'Corps-Déplacer/Copier1[2]', #73 ) ;
#184 = CC_DESIGN_SECURITY_CLASSIFICATION ( #37, ( #157 ) ) ;
#185 = ORIENTED_EDGE ( 'NONE', *, *, #117, .F. ) ;
#186 = COORDINATED_UNIVERSAL_TIME_OFFSET ( 1, 0, .AHEAD. ) ;
#187 = EDGE_LOOP ( 'NONE', ( #116 ) ) ;
#188 = AXIS2_PLACEMENT_3D ( 'NONE', #128, #180, #27 ) ;
#189 = APPROVAL_DATE_TIME ( #205, #206 ) ;
#190 = EDGE_LOOP ( 'NONE', ( #60 ) ) ;
#191 = APPROVAL_ROLE ( '' ) ;
#192 = CARTESIAN_POINT ( 'NONE',  ( 4.189777606611760026E-14, 0.7749999999999935829, 12.00000000000000000 ) ) ;
#193 = VERTEX_POINT ( 'NONE', #33 ) ;
#194 = LOCAL_TIME ( 15, 47, 39.00000000000000000, #10 ) ;
#195 = CARTESIAN_POINT ( 'NONE',  ( 4.189777606611760026E-14, -1.469576158976823947E-15, 12.00000000000000000 ) ) ;
#196 = CC_DESIGN_PERSON_AND_ORGANIZATION_ASSIGNMENT ( #98, #13, ( #157 ) ) ;
#197 = CARTESIAN_POINT ( 'NONE',  ( 1.319779946082704535E-13, -4.629164900776995227E-15, 37.79999999999999716 ) ) ;
#198 = DIRECTION ( 'NONE',  ( -4.275831445896958607E-31, -1.000000000000000000, -1.224646799147353207E-16 ) ) ;
#199 = PERSON_AND_ORGANIZATION_ROLE ( 'creator' ) ;
#200 =( NAMED_UNIT ( * ) PLANE_ANGLE_UNIT ( ) SI_UNIT ( $, .RADIAN. ) );
#201 = EDGE_CURVE ( 'NONE', #193, #193, #6, .T. ) ;
#202 = FACE_OUTER_BOUND ( 'NONE', #190, .T. ) ;
#203 = CALENDAR_DATE ( 2021, 7, 10 ) ;
#204 = AXIS2_PLACEMENT_3D ( 'NONE', #90, #107, #87 ) ;
#205 = DATE_AND_TIME ( #203, #221 ) ;
#206 = APPROVAL ( #218, 'UNSPECIFIED' ) ;
#207 = DATE_AND_TIME ( #44, #194 ) ;
#208 = PLANE ( 'NONE',  #18 ) ;
#209 = EDGE_CURVE ( 'NONE', #23, #23, #130, .T. ) ;
#210 = DIRECTION ( 'NONE',  ( 0.0000000000000000000, 1.000000000000000000, 0.0000000000000000000 ) ) ;
#211 = FACE_OUTER_BOUND ( 'NONE', #99, .T. ) ;
#212 = DIRECTION ( 'NONE',  ( 3.491481338843133355E-15, -1.224646799147353207E-16, 1.000000000000000000 ) ) ;
#213 = DATE_AND_TIME ( #146, #106 ) ;
#214 = AXIS2_PLACEMENT_3D ( 'NONE', #19, #142, #156 ) ;
#215 = FACE_OUTER_BOUND ( 'NONE', #173, .T. ) ;
#216 =( GEOMETRIC_REPRESENTATION_CONTEXT ( 3 ) GLOBAL_UNCERTAINTY_ASSIGNED_CONTEXT ( ( #147 ) ) GLOBAL_UNIT_ASSIGNED_CONTEXT ( ( #145, #200, #91 ) ) REPRESENTATION_CONTEXT ( 'NONE', 'WORKASPACE' ) );
#217 = ADVANCED_FACE ( 'NONE', ( #49, #84 ), #151, .T. ) ;
#218 = APPROVAL_STATUS ( 'not_yet_approved' ) ;
#219 = LOCAL_TIME ( 15, 47, 39.00000000000000000, #108 ) ;
#220 = DIRECTION ( 'NONE',  ( 3.491481338843133355E-15, -1.224646799147353207E-16, 1.000000000000000000 ) ) ;
#221 = LOCAL_TIME ( 15, 47, 39.00000000000000000, #46 ) ;
#222 = FACE_OUTER_BOUND ( 'NONE', #95, .T. ) ;
#223 = CARTESIAN_POINT ( 'NONE',  ( 1.625867569899860788E-15, -5.702775762149956404E-17, 0.4656669797463603988 ) ) ;
ENDSEC;
END-ISO-10303-21;
