ISO-10303-21;
HEADER;
FILE_DESCRIPTION (( 'STEP AP203' ),
    '1' );
FILE_NAME ('38089.step',
    '2021-10-07T13:47:39',
    ( '' ),
    ( '' ),
    'SwSTEP 2.0',
    'SolidWorks 2019',
    '' );
FILE_SCHEMA (( 'CONFIG_CONTROL_DESIGN' ));
ENDSEC;

DATA;
#1 = SHAPE_DEFINITION_REPRESENTATION ( #143, #166 ) ;
#2 = LOCAL_TIME ( 15, 47, 39.00000000000000000, #115 ) ;
#3 = APPROVAL_DATE_TIME ( #57, #56 ) ;
#4 = EDGE_LOOP ( 'NONE', ( #41 ) ) ;
#5 = PRODUCT ( '38089', '38089', '', ( #168 ) ) ;
#6 = VERTEX_POINT ( 'NONE', #97 ) ;
#7 =( GEOMETRIC_REPRESENTATION_CONTEXT ( 3 ) GLOBAL_UNCERTAINTY_ASSIGNED_CONTEXT ( ( #17 ) ) GLOBAL_UNIT_ASSIGNED_CONTEXT ( ( #199, #98, #80 ) ) REPRESENTATION_CONTEXT ( 'NONE', 'WORKASPACE' ) );
#8 = PLANE ( 'NONE',  #119 ) ;
#9 = CARTESIAN_POINT ( 'NONE',  ( 1.326762908760390423E-13, 5.999039130647367482E-33, 38.00000000000000000 ) ) ;
#10 = CC_DESIGN_PERSON_AND_ORGANIZATION_ASSIGNMENT ( #34, #15, ( #116 ) ) ;
#11 = CARTESIAN_POINT ( 'NONE',  ( 0.0000000000000000000, 0.0000000000000000000, 0.0000000000000000000 ) ) ;
#12 = CARTESIAN_POINT ( 'NONE',  ( 4.337939471889359001E-14, -1.521544345674345592E-15, 12.42435244785438542 ) ) ;
#13 = COORDINATED_UNIVERSAL_TIME_OFFSET ( 1, 0, .AHEAD. ) ;
#14 = AXIS2_PLACEMENT_3D ( 'NONE', #47, #165, #169 ) ;
#15 = PERSON_AND_ORGANIZATION_ROLE ( 'design_supplier' ) ;
#16 = EDGE_CURVE ( 'NONE', #89, #89, #191, .T. ) ;
#17 = UNCERTAINTY_MEASURE_WITH_UNIT (LENGTH_MEASURE( 1.000000000000000082E-05 ), #199, 'distance_accuracy_value', 'NONE');
#18 = CC_DESIGN_APPROVAL ( #131, ( #175 ) ) ;
#19 = DIRECTION ( 'NONE',  ( -3.491481338843133355E-15, 1.224646799147353207E-16, -1.000000000000000000 ) ) ;
#20 = EDGE_LOOP ( 'NONE', ( #121 ) ) ;
#21 = EDGE_LOOP ( 'NONE', ( #87 ) ) ;
#22 = ORIENTED_EDGE ( 'NONE', *, *, #32, .F. ) ;
#23 = ADVANCED_FACE ( 'NONE', ( #118 ), #171, .T. ) ;
#24 = DIRECTION ( 'NONE',  ( -3.491481338843133355E-15, 1.224646799147353207E-16, -1.000000000000000000 ) ) ;
#25 = DIRECTION ( 'NONE',  ( -3.491481338843133355E-15, 1.224646799147353207E-16, -1.000000000000000000 ) ) ;
#26 = PLANE ( 'NONE',  #153 ) ;
#27 = MANIFOLD_SOLID_BREP ( 'Corps-Déplacer/Copier1[2]', #74 ) ;
#28 = DIRECTION ( 'NONE',  ( -4.275831445896958607E-31, -1.000000000000000000, -1.224646799147353207E-16 ) ) ;
#29 = DIRECTION ( 'NONE',  ( -3.491481338843133355E-15, 1.224646799147353207E-16, -1.000000000000000000 ) ) ;
#30 = AXIS2_PLACEMENT_3D ( 'NONE', #196, #25, #211 ) ;
#31 = VERTEX_POINT ( 'NONE', #66 ) ;
#32 = EDGE_CURVE ( 'NONE', #46, #46, #70, .T. ) ;
#33 = PERSON_AND_ORGANIZATION ( #37, #49 ) ;
#34 = PERSON_AND_ORGANIZATION ( #37, #49 ) ;
#35 = APPLICATION_CONTEXT ( 'configuration controlled 3d designs of mechanical parts and assemblies' ) ;
#36 = PERSON_AND_ORGANIZATION_ROLE ( 'design_owner' ) ;
#37 = PERSON ( 'UNSPECIFIED', 'UNSPECIFIED', 'UNSPECIFIED', ('UNSPECIFIED'), ('UNSPECIFIED'), ('UNSPECIFIED') ) ;
#38 = ADVANCED_FACE ( 'NONE', ( #61 ), #43, .F. ) ;
#39 = EDGE_LOOP ( 'NONE', ( #193 ) ) ;
#40 = APPROVAL_PERSON_ORGANIZATION ( #54, #56, #146 ) ;
#41 = ORIENTED_EDGE ( 'NONE', *, *, #16, .T. ) ;
#42 = CARTESIAN_POINT ( 'NONE',  ( 4.337939471889359001E-14, 0.9999999999999963363, 12.42435244785438542 ) ) ;
#43 = PLANE ( 'NONE',  #148 ) ;
#44 = FACE_BOUND ( 'NONE', #20, .T. ) ;
#45 = FACE_OUTER_BOUND ( 'NONE', #60, .T. ) ;
#46 = VERTEX_POINT ( 'NONE', #194 ) ;
#47 = CARTESIAN_POINT ( 'NONE',  ( 0.0000000000000000000, 0.0000000000000000000, 0.0000000000000000000 ) ) ;
#48 = AXIS2_PLACEMENT_3D ( 'NONE', #75, #139, #109 ) ;
#49 = ORGANIZATION ( 'UNSPECIFIED', 'UNSPECIFIED', '' ) ;
#50 = COORDINATED_UNIVERSAL_TIME_OFFSET ( 1, 0, .AHEAD. ) ;
#51 = DATE_AND_TIME ( #133, #149 ) ;
#52 = CC_DESIGN_PERSON_AND_ORGANIZATION_ASSIGNMENT ( #33, #36, ( #5 ) ) ;
#53 = PERSON_AND_ORGANIZATION ( #37, #49 ) ;
#54 = PERSON_AND_ORGANIZATION ( #37, #49 ) ;
#55 = ORIENTED_EDGE ( 'NONE', *, *, #164, .T. ) ;
#56 = APPROVAL ( #117, 'UNSPECIFIED' ) ;
#57 = DATE_AND_TIME ( #137, #172 ) ;
#58 = EDGE_LOOP ( 'NONE', ( #22 ) ) ;
#59 = ADVANCED_FACE ( 'NONE', ( #111, #142 ), #182, .T. ) ;
#60 = EDGE_LOOP ( 'NONE', ( #223 ) ) ;
#61 = FACE_OUTER_BOUND ( 'NONE', #174, .T. ) ;
#62 = FACE_BOUND ( 'NONE', #39, .T. ) ;
#63 = CARTESIAN_POINT ( 'NONE',  ( 4.189777606611760026E-14, -1.469576158976823947E-15, 12.00000000000000000 ) ) ;
#64 = DIRECTION ( 'NONE',  ( -3.491481338843133355E-15, 1.224646799147353207E-16, -1.000000000000000000 ) ) ;
#65 = CARTESIAN_POINT ( 'NONE',  ( 4.337939471889359001E-14, -1.521544345674345592E-15, 12.42435244785438542 ) ) ;
#66 = CARTESIAN_POINT ( 'NONE',  ( 1.583909697128252839E-15, 0.7549999999999941203, 0.4536497673658095309 ) ) ;
#67 = DATE_AND_TIME ( #82, #159 ) ;
#68 = APPLICATION_PROTOCOL_DEFINITION ( 'international standard', 'config_control_design', 1994, #106 ) ;
#69 = APPROVAL_DATE_TIME ( #81, #131 ) ;
#70 = CIRCLE ( 'NONE', #95, 0.7549999999999950084 ) ;
#71 = CIRCLE ( 'NONE', #122, 0.7549999999999942313 ) ;
#72 = DIRECTION ( 'NONE',  ( 0.0000000000000000000, 1.000000000000000000, 0.0000000000000000000 ) ) ;
#73 = APPROVAL_PERSON_ORGANIZATION ( #218, #84, #167 ) ;
#74 = CLOSED_SHELL ( 'NONE', ( #23, #126, #100 ) ) ;
#75 = CARTESIAN_POINT ( 'NONE',  ( 1.583909697128252444E-15, -5.555607355384798704E-17, 0.4536497673658094199 ) ) ;
#76 = DIRECTION ( 'NONE',  ( -4.275831445896958607E-31, -1.000000000000000000, -1.224646799147353207E-16 ) ) ;
#77 = DIRECTION ( 'NONE',  ( -3.491481338843133355E-15, 1.224646799147353207E-16, -1.000000000000000000 ) ) ;
#78 = DIRECTION ( 'NONE',  ( 4.275831445896958607E-31, 1.000000000000000000, 1.224646799147353207E-16 ) ) ;
#79 = LOCAL_TIME ( 15, 47, 39.00000000000000000, #186 ) ;
#80 =( NAMED_UNIT ( * ) SI_UNIT ( $, .STERADIAN. ) SOLID_ANGLE_UNIT ( ) );
#81 = DATE_AND_TIME ( #114, #79 ) ;
#82 = CALENDAR_DATE ( 2021, 7, 10 ) ;
#83 = SECURITY_CLASSIFICATION_LEVEL ( 'unclassified' ) ;
#84 = APPROVAL ( #187, 'UNSPECIFIED' ) ;
#85 = APPLICATION_PROTOCOL_DEFINITION ( 'international standard', 'config_control_design', 1994, #35 ) ;
#86 = CIRCLE ( 'NONE', #209, 0.7549999999999950084 ) ;
#87 = ORIENTED_EDGE ( 'NONE', *, *, #16, .F. ) ;
#88 = ORIENTED_EDGE ( 'NONE', *, *, #180, .T. ) ;
#89 = VERTEX_POINT ( 'NONE', #158 ) ;
#90 = CIRCLE ( 'NONE', #151, 0.8000000000000009326 ) ;
#91 = CARTESIAN_POINT ( 'NONE',  ( 4.189777606611760026E-14, -1.469576158976823947E-15, 12.00000000000000000 ) ) ;
#92 = CARTESIAN_POINT ( 'NONE',  ( 1.326762908760390423E-13, -4.653657836759941941E-15, 38.00000000000000000 ) ) ;
#93 = DIRECTION ( 'NONE',  ( 3.491481338843133355E-15, -1.224646799147353207E-16, 1.000000000000000000 ) ) ;
#94 = CC_DESIGN_DATE_AND_TIME_ASSIGNMENT ( #135, #204, ( #220 ) ) ;
#95 = AXIS2_PLACEMENT_3D ( 'NONE', #63, #125, #212 ) ;
#96 = DIRECTION ( 'NONE',  ( -3.491481338843133355E-15, 1.224646799147353207E-16, -1.000000000000000000 ) ) ;
#97 = CARTESIAN_POINT ( 'NONE',  ( 4.189777606611760026E-14, 0.7549999999999935651, 12.00000000000000000 ) ) ;
#98 =( NAMED_UNIT ( * ) PLANE_ANGLE_UNIT ( ) SI_UNIT ( $, .RADIAN. ) );
#99 = PERSON_AND_ORGANIZATION_ROLE ( 'creator' ) ;
#100 = ADVANCED_FACE ( 'NONE', ( #213 ), #26, .T. ) ;
#101 = CARTESIAN_POINT ( 'NONE',  ( 1.319779946082704535E-13, -4.629164900776995227E-15, 37.79999999999999716 ) ) ;
#102 = AXIS2_PLACEMENT_3D ( 'NONE', #11, #24, #78 ) ;
#103 = ORIENTED_EDGE ( 'NONE', *, *, #215, .T. ) ;
#104 = ORIENTED_EDGE ( 'NONE', *, *, #164, .F. ) ;
#105 = FACE_OUTER_BOUND ( 'NONE', #21, .T. ) ;
#106 = APPLICATION_CONTEXT ( 'configuration controlled 3d designs of mechanical parts and assemblies' ) ;
#107 = FACE_OUTER_BOUND ( 'NONE', #189, .T. ) ;
#108 = AXIS2_PLACEMENT_3D ( 'NONE', #65, #160, #197 ) ;
#109 = DIRECTION ( 'NONE',  ( -5.101801177184769655E-31, -1.000000000000000000, -1.436029367530480404E-16 ) ) ;
#110 = CYLINDRICAL_SURFACE ( 'NONE', #102, 0.7549999999999945643 ) ;
#111 = FACE_OUTER_BOUND ( 'NONE', #176, .T. ) ;
#112 = CONICAL_SURFACE ( 'NONE', #108, 0.9999999999999978906, 0.5235987755982937086 ) ;
#113 = DATE_TIME_ROLE ( 'creation_date' ) ;
#114 = CALENDAR_DATE ( 2021, 7, 10 ) ;
#115 = COORDINATED_UNIVERSAL_TIME_OFFSET ( 1, 0, .AHEAD. ) ;
#116 = PRODUCT_DEFINITION_FORMATION_WITH_SPECIFIED_SOURCE ( 'ANY', '', #5, .NOT_KNOWN. ) ;
#117 = APPROVAL_STATUS ( 'not_yet_approved' ) ;
#118 = FACE_OUTER_BOUND ( 'NONE', #207, .T. ) ;
#119 = AXIS2_PLACEMENT_3D ( 'NONE', #9, #77, #144 ) ;
#120 = CC_DESIGN_APPROVAL ( #56, ( #220 ) ) ;
#121 = ORIENTED_EDGE ( 'NONE', *, *, #180, .F. ) ;
#122 = AXIS2_PLACEMENT_3D ( 'NONE', #128, #29, #198 ) ;
#123 = DIRECTION ( 'NONE',  ( -3.491481338843133355E-15, 1.224646799147353207E-16, -1.000000000000000000 ) ) ;
#124 = DIRECTION ( 'NONE',  ( 0.0000000000000000000, 1.000000000000000000, 0.0000000000000000000 ) ) ;
#125 = DIRECTION ( 'NONE',  ( -3.491481338843133355E-15, 1.224646799147353207E-16, -1.000000000000000000 ) ) ;
#126 = ADVANCED_FACE ( 'NONE', ( #107, #181 ), #110, .T. ) ;
#127 = DIRECTION ( 'NONE',  ( 0.0000000000000000000, 1.000000000000000000, 0.0000000000000000000 ) ) ;
#128 = CARTESIAN_POINT ( 'NONE',  ( 1.583909697128252444E-15, -5.555607355384798704E-17, 0.4536497673658094199 ) ) ;
#129 = APPROVAL_DATE_TIME ( #67, #84 ) ;
#130 = AXIS2_PLACEMENT_3D ( 'NONE', #101, #19, #72 ) ;
#131 = APPROVAL ( #217, 'UNSPECIFIED' ) ;
#132 = PERSON_AND_ORGANIZATION_ROLE ( 'creator' ) ;
#133 = CALENDAR_DATE ( 2021, 7, 10 ) ;
#134 = CC_DESIGN_DATE_AND_TIME_ASSIGNMENT ( #51, #113, ( #175 ) ) ;
#135 = DATE_AND_TIME ( #170, #2 ) ;
#136 = EDGE_CURVE ( 'NONE', #141, #141, #90, .T. ) ;
#137 = CALENDAR_DATE ( 2021, 7, 10 ) ;
#138 = ADVANCED_FACE ( 'NONE', ( #105, #62 ), #185, .T. ) ;
#139 = DIRECTION ( 'NONE',  ( 3.491481338843133355E-15, -1.224646799147353207E-16, 1.000000000000000000 ) ) ;
#140 = AXIS2_PLACEMENT_3D ( 'NONE', #145, #123, #161 ) ;
#141 = VERTEX_POINT ( 'NONE', #183 ) ;
#142 = FACE_OUTER_BOUND ( 'NONE', #4, .T. ) ;
#143 = PRODUCT_DEFINITION_SHAPE ( 'NONE', 'NONE',  #175 ) ;
#144 = DIRECTION ( 'NONE',  ( 4.275831445896958607E-31, 1.000000000000000000, 1.224646799147353207E-16 ) ) ;
#145 = CARTESIAN_POINT ( 'NONE',  ( 1.326762908760390423E-13, -4.653657836759941941E-15, 38.00000000000000000 ) ) ;
#146 = APPROVAL_ROLE ( '' ) ;
#147 = APPROVAL_ROLE ( '' ) ;
#148 = AXIS2_PLACEMENT_3D ( 'NONE', #178, #93, #28 ) ;
#149 = LOCAL_TIME ( 15, 47, 39.00000000000000000, #50 ) ;
#150 = PERSON_AND_ORGANIZATION ( #37, #49 ) ;
#151 = AXIS2_PLACEMENT_3D ( 'NONE', #92, #96, #179 ) ;
#152 = ORIENTED_EDGE ( 'NONE', *, *, #32, .T. ) ;
#153 = AXIS2_PLACEMENT_3D ( 'NONE', #163, #162, #76 ) ;
#154 = CC_DESIGN_APPROVAL ( #84, ( #116 ) ) ;
#155 = COORDINATED_UNIVERSAL_TIME_OFFSET ( 1, 0, .AHEAD. ) ;
#156 = EDGE_LOOP ( 'NONE', ( #55 ) ) ;
#157 = ORIENTED_EDGE ( 'NONE', *, *, #215, .F. ) ;
#158 = CARTESIAN_POINT ( 'NONE',  ( 1.319779946082704535E-13, 0.9999999999999963363, 37.79999999999999716 ) ) ;
#159 = LOCAL_TIME ( 15, 47, 39.00000000000000000, #13 ) ;
#160 = DIRECTION ( 'NONE',  ( 3.491481338843133355E-15, -1.224646799147353207E-16, 1.000000000000000000 ) ) ;
#161 = DIRECTION ( 'NONE',  ( 0.0000000000000000000, 1.000000000000000000, 0.0000000000000000000 ) ) ;
#162 = DIRECTION ( 'NONE',  ( 3.491481338843133355E-15, -1.224646799147353207E-16, 1.000000000000000000 ) ) ;
#163 = CARTESIAN_POINT ( 'NONE',  ( 4.189777606611760026E-14, 5.661593179548452531E-33, 12.00000000000000000 ) ) ;
#164 = EDGE_CURVE ( 'NONE', #208, #208, #219, .T. ) ;
#165 = DIRECTION ( 'NONE',  ( 0.0000000000000000000, 0.0000000000000000000, 1.000000000000000000 ) ) ;
#166 = ADVANCED_BREP_SHAPE_REPRESENTATION ( '38089', ( #177, #27, #14 ), #7 ) ;
#167 = APPROVAL_ROLE ( '' ) ;
#168 = MECHANICAL_CONTEXT ( 'NONE', #106, 'mechanical' ) ;
#169 = DIRECTION ( 'NONE',  ( 1.000000000000000000, 0.0000000000000000000, 0.0000000000000000000 ) ) ;
#170 = CALENDAR_DATE ( 2021, 7, 10 ) ;
#171 = CONICAL_SURFACE ( 'NONE', #48, 0.7549999999999942313, 1.029744258676649871 ) ;
#172 = LOCAL_TIME ( 15, 47, 39.00000000000000000, #155 ) ;
#173 = PRODUCT_RELATED_PRODUCT_CATEGORY ( 'detail', '', ( #5 ) ) ;
#174 = EDGE_LOOP ( 'NONE', ( #88 ) ) ;
#175 = PRODUCT_DEFINITION ( 'UNKNOWN', '', #116, #221 ) ;
#176 = EDGE_LOOP ( 'NONE', ( #104 ) ) ;
#177 = MANIFOLD_SOLID_BREP ( 'Corps-Déplacer/Copier1[1]', #214 ) ;
#178 = CARTESIAN_POINT ( 'NONE',  ( 4.189777606611760026E-14, 5.661593179548452531E-33, 12.00000000000000000 ) ) ;
#179 = DIRECTION ( 'NONE',  ( 0.0000000000000000000, 1.000000000000000000, 0.0000000000000000000 ) ) ;
#180 = EDGE_CURVE ( 'NONE', #6, #6, #86, .T. ) ;
#181 = FACE_OUTER_BOUND ( 'NONE', #205, .T. ) ;
#182 = CYLINDRICAL_SURFACE ( 'NONE', #30, 0.9999999999999993339 ) ;
#183 = CARTESIAN_POINT ( 'NONE',  ( 1.326762908760390423E-13, 0.7999999999999962697, 38.00000000000000000 ) ) ;
#184 = ADVANCED_FACE ( 'NONE', ( #44, #216 ), #112, .T. ) ;
#185 = CONICAL_SURFACE ( 'NONE', #140, 0.8000000000000009326, 0.7853981633974512766 ) ;
#186 = COORDINATED_UNIVERSAL_TIME_OFFSET ( 1, 0, .AHEAD. ) ;
#187 = APPROVAL_STATUS ( 'not_yet_approved' ) ;
#188 = PERSON_AND_ORGANIZATION ( #37, #49 ) ;
#189 = EDGE_LOOP ( 'NONE', ( #157 ) ) ;
#190 = CC_DESIGN_PERSON_AND_ORGANIZATION_ASSIGNMENT ( #150, #203, ( #220 ) ) ;
#191 = CIRCLE ( 'NONE', #130, 1.000000000000000888 ) ;
#192 = CC_DESIGN_PERSON_AND_ORGANIZATION_ASSIGNMENT ( #53, #132, ( #116 ) ) ;
#193 = ORIENTED_EDGE ( 'NONE', *, *, #136, .T. ) ;
#194 = CARTESIAN_POINT ( 'NONE',  ( 4.189777606611760026E-14, 0.7549999999999935651, 12.00000000000000000 ) ) ;
#195 = DIRECTION ( 'NONE',  ( -3.491481338843133355E-15, 1.224646799147353207E-16, -1.000000000000000000 ) ) ;
#196 = CARTESIAN_POINT ( 'NONE',  ( 0.0000000000000000000, 0.0000000000000000000, 0.0000000000000000000 ) ) ;
#197 = DIRECTION ( 'NONE',  ( 0.0000000000000000000, -1.000000000000000000, 0.0000000000000000000 ) ) ;
#198 = DIRECTION ( 'NONE',  ( 5.101801177184769655E-31, 1.000000000000000000, 1.436029367530480404E-16 ) ) ;
#199 =( LENGTH_UNIT ( ) NAMED_UNIT ( * ) SI_UNIT ( .MILLI., .METRE. ) );
#200 = CC_DESIGN_SECURITY_CLASSIFICATION ( #220, ( #116 ) ) ;
#201 = PERSON_AND_ORGANIZATION ( #37, #49 ) ;
#202 = CC_DESIGN_PERSON_AND_ORGANIZATION_ASSIGNMENT ( #188, #99, ( #175 ) ) ;
#203 = PERSON_AND_ORGANIZATION_ROLE ( 'classification_officer' ) ;
#204 = DATE_TIME_ROLE ( 'classification_date' ) ;
#205 = EDGE_LOOP ( 'NONE', ( #152 ) ) ;
#206 = AXIS2_PLACEMENT_3D ( 'NONE', #12, #64, #127 ) ;
#207 = EDGE_LOOP ( 'NONE', ( #103 ) ) ;
#208 = VERTEX_POINT ( 'NONE', #42 ) ;
#209 = AXIS2_PLACEMENT_3D ( 'NONE', #91, #195, #124 ) ;
#210 = ADVANCED_FACE ( 'NONE', ( #45 ), #8, .F. ) ;
#211 = DIRECTION ( 'NONE',  ( 4.275831445896957731E-31, 1.000000000000000000, 1.224646799147353207E-16 ) ) ;
#212 = DIRECTION ( 'NONE',  ( 0.0000000000000000000, 1.000000000000000000, 0.0000000000000000000 ) ) ;
#213 = FACE_OUTER_BOUND ( 'NONE', #58, .T. ) ;
#214 = CLOSED_SHELL ( 'NONE', ( #38, #184, #59, #138, #210 ) ) ;
#215 = EDGE_CURVE ( 'NONE', #31, #31, #71, .T. ) ;
#216 = FACE_OUTER_BOUND ( 'NONE', #156, .T. ) ;
#217 = APPROVAL_STATUS ( 'not_yet_approved' ) ;
#218 = PERSON_AND_ORGANIZATION ( #37, #49 ) ;
#219 = CIRCLE ( 'NONE', #206, 0.9999999999999978906 ) ;
#220 = SECURITY_CLASSIFICATION ( '', '', #83 ) ;
#221 = DESIGN_CONTEXT ( 'detailed design', #35, 'design' ) ;
#222 = APPROVAL_PERSON_ORGANIZATION ( #201, #131, #147 ) ;
#223 = ORIENTED_EDGE ( 'NONE', *, *, #136, .F. ) ;
ENDSEC;
END-ISO-10303-21;
