ISO-10303-21;
HEADER;
FILE_DESCRIPTION (( 'STEP AP203' ),
    '1' );
FILE_NAME ('38086.step',
    '2021-10-07T13:47:38',
    ( '' ),
    ( '' ),
    'SwSTEP 2.0',
    'SolidWorks 2019',
    '' );
FILE_SCHEMA (( 'CONFIG_CONTROL_DESIGN' ));
ENDSEC;

DATA;
#1 = CIRCLE ( 'NONE', #218, 0.4699999999999990852 ) ;
#2 = CARTESIAN_POINT ( 'NONE',  ( 2.478951750578624367E-14, 0.4699999999999981970, 7.099999999999999645 ) ) ;
#3 = FACE_OUTER_BOUND ( 'NONE', #76, .T. ) ;
#4 = PERSON_AND_ORGANIZATION_ROLE ( 'design_owner' ) ;
#5 = ADVANCED_FACE ( 'NONE', ( #200 ), #148, .F. ) ;
#6 = MECHANICAL_CONTEXT ( 'NONE', #67, 'mechanical' ) ;
#7 = ORIENTED_EDGE ( 'NONE', *, *, #205, .T. ) ;
#8 = PERSON_AND_ORGANIZATION_ROLE ( 'creator' ) ;
#9 = ORIENTED_EDGE ( 'NONE', *, *, #223, .T. ) ;
#10 = APPROVAL_ROLE ( '' ) ;
#11 = CC_DESIGN_PERSON_AND_ORGANIZATION_ASSIGNMENT ( #199, #42, ( #194 ) ) ;
#12 = CONICAL_SURFACE ( 'NONE', #119, 0.4699999999999977529, 1.029744258676649649 ) ;
#13 = UNCERTAINTY_MEASURE_WITH_UNIT (LENGTH_MEASURE( 1.000000000000000082E-05 ), #130, 'distance_accuracy_value', 'NONE');
#14 = APPROVAL ( #71, 'UNSPECIFIED' ) ;
#15 = EDGE_LOOP ( 'NONE', ( #183 ) ) ;
#16 = FACE_BOUND ( 'NONE', #113, .T. ) ;
#17 = FACE_OUTER_BOUND ( 'NONE', #15, .T. ) ;
#18 = DIRECTION ( 'NONE',  ( 4.275831445896958607E-31, 1.000000000000000000, 1.224646799147353207E-16 ) ) ;
#19 = CC_DESIGN_APPROVAL ( #133, ( #30 ) ) ;
#20 = CARTESIAN_POINT ( 'NONE',  ( 9.860100101328223057E-16, -3.458457558981276210E-17, 0.2824044909429550554 ) ) ;
#21 = DIRECTION ( 'NONE',  ( -3.491481338843133355E-15, 1.224646799147353207E-16, -1.000000000000000000 ) ) ;
#22 = CALENDAR_DATE ( 2021, 7, 10 ) ;
#23 = ADVANCED_BREP_SHAPE_REPRESENTATION ( '38086', ( #93, #25, #108 ), #201 ) ;
#24 = AXIS2_PLACEMENT_3D ( 'NONE', #190, #21, #53 ) ;
#25 = MANIFOLD_SOLID_BREP ( 'Corps-Déplacer/Copier1[2]', #202 ) ;
#26 = DATE_AND_TIME ( #22, #75 ) ;
#27 = ORIENTED_EDGE ( 'NONE', *, *, #185, .T. ) ;
#28 = APPROVAL_STATUS ( 'not_yet_approved' ) ;
#29 = DIRECTION ( 'NONE',  ( 1.000000000000000000, 0.0000000000000000000, 0.0000000000000000000 ) ) ;
#30 = SECURITY_CLASSIFICATION ( '', '', #149 ) ;
#31 = ORIENTED_EDGE ( 'NONE', *, *, #223, .F. ) ;
#32 = EDGE_LOOP ( 'NONE', ( #7 ) ) ;
#33 = DIRECTION ( 'NONE',  ( -3.491481338843133355E-15, 1.224646799147353207E-16, -1.000000000000000000 ) ) ;
#34 = DIRECTION ( 'NONE',  ( 0.0000000000000000000, -1.000000000000000000, 0.0000000000000000000 ) ) ;
#35 = CYLINDRICAL_SURFACE ( 'NONE', #151, 0.4699999999999984190 ) ;
#36 = FACE_OUTER_BOUND ( 'NONE', #187, .T. ) ;
#37 = AXIS2_PLACEMENT_3D ( 'NONE', #100, #54, #171 ) ;
#38 = CONICAL_SURFACE ( 'NONE', #24, 0.5500000000000000444, 0.7853981633974512766 ) ;
#39 = VERTEX_POINT ( 'NONE', #99 ) ;
#40 = CALENDAR_DATE ( 2021, 7, 10 ) ;
#41 =( NAMED_UNIT ( * ) PLANE_ANGLE_UNIT ( ) SI_UNIT ( $, .RADIAN. ) );
#42 = PERSON_AND_ORGANIZATION_ROLE ( 'creator' ) ;
#43 = LOCAL_TIME ( 15, 47, 38.00000000000000000, #196 ) ;
#44 = EDGE_LOOP ( 'NONE', ( #111 ) ) ;
#45 =( NAMED_UNIT ( * ) SI_UNIT ( $, .STERADIAN. ) SOLID_ANGLE_UNIT ( ) );
#46 = PERSON_AND_ORGANIZATION ( #79, #61 ) ;
#47 = DIRECTION ( 'NONE',  ( 3.491481338843133355E-15, -1.224646799147353207E-16, 1.000000000000000000 ) ) ;
#48 = LOCAL_TIME ( 15, 47, 38.00000000000000000, #198 ) ;
#49 = DIRECTION ( 'NONE',  ( 4.275831445896957731E-31, 1.000000000000000000, 1.224646799147352961E-16 ) ) ;
#50 = CC_DESIGN_DATE_AND_TIME_ASSIGNMENT ( #210, #106, ( #120 ) ) ;
#51 = FACE_OUTER_BOUND ( 'NONE', #217, .T. ) ;
#52 = CARTESIAN_POINT ( 'NONE',  ( 1.047444401652940007E-13, 4.124339402320052999E-33, 30.00000000000000000 ) ) ;
#53 = DIRECTION ( 'NONE',  ( 0.0000000000000000000, 1.000000000000000000, 0.0000000000000000000 ) ) ;
#54 = DIRECTION ( 'NONE',  ( -3.491481338843133355E-15, 1.224646799147353207E-16, -1.000000000000000000 ) ) ;
#55 = APPROVAL_STATUS ( 'not_yet_approved' ) ;
#56 = DATE_AND_TIME ( #40, #213 ) ;
#57 = CIRCLE ( 'NONE', #219, 0.5500000000000000444 ) ;
#58 = CALENDAR_DATE ( 2021, 7, 10 ) ;
#59 = ORIENTED_EDGE ( 'NONE', *, *, #64, .F. ) ;
#60 = PRODUCT_DEFINITION_SHAPE ( 'NONE', 'NONE',  #120 ) ;
#61 = ORGANIZATION ( 'UNSPECIFIED', 'UNSPECIFIED', '' ) ;
#62 = DIRECTION ( 'NONE',  ( -3.491481338843133355E-15, 1.224646799147353207E-16, -1.000000000000000000 ) ) ;
#63 = CYLINDRICAL_SURFACE ( 'NONE', #174, 0.7499999999999986677 ) ;
#64 = EDGE_CURVE ( 'NONE', #104, #104, #85, .T. ) ;
#65 = DIRECTION ( 'NONE',  ( -3.491481338843133355E-15, 1.224646799147353207E-16, -1.000000000000000000 ) ) ;
#66 = DIRECTION ( 'NONE',  ( 4.097723285930308764E-31, 1.000000000000000000, 1.153406566473946437E-16 ) ) ;
#67 = APPLICATION_CONTEXT ( 'configuration controlled 3d designs of mechanical parts and assemblies' ) ;
#68 = DIRECTION ( 'NONE',  ( 0.0000000000000000000, 1.000000000000000000, 0.0000000000000000000 ) ) ;
#69 = CIRCLE ( 'NONE', #156, 0.4699999999999990852 ) ;
#70 = CC_DESIGN_PERSON_AND_ORGANIZATION_ASSIGNMENT ( #46, #4, ( #77 ) ) ;
#71 = APPROVAL_STATUS ( 'not_yet_approved' ) ;
#72 = PERSON_AND_ORGANIZATION ( #79, #61 ) ;
#73 = EDGE_LOOP ( 'NONE', ( #162 ) ) ;
#74 = APPROVAL_DATE_TIME ( #56, #14 ) ;
#75 = LOCAL_TIME ( 15, 47, 38.00000000000000000, #180 ) ;
#76 = EDGE_LOOP ( 'NONE', ( #27 ) ) ;
#77 = PRODUCT ( '38086', '38086', '', ( #6 ) ) ;
#78 = CC_DESIGN_PERSON_AND_ORGANIZATION_ASSIGNMENT ( #216, #109, ( #30 ) ) ;
#79 = PERSON ( 'UNSPECIFIED', 'UNSPECIFIED', 'UNSPECIFIED', ('UNSPECIFIED'), ('UNSPECIFIED'), ('UNSPECIFIED') ) ;
#80 = CALENDAR_DATE ( 2021, 7, 10 ) ;
#81 = AXIS2_PLACEMENT_3D ( 'NONE', #214, #47, #166 ) ;
#82 = CARTESIAN_POINT ( 'NONE',  ( 0.0000000000000000000, 0.0000000000000000000, 0.0000000000000000000 ) ) ;
#83 = DIRECTION ( 'NONE',  ( -3.491481338843133355E-15, 1.224646799147353207E-16, -1.000000000000000000 ) ) ;
#84 = DIRECTION ( 'NONE',  ( 0.0000000000000000000, 1.000000000000000000, 0.0000000000000000000 ) ) ;
#85 = CIRCLE ( 'NONE', #197, 0.7499999999999973355 ) ;
#86 = DIRECTION ( 'NONE',  ( 0.0000000000000000000, 1.000000000000000000, 0.0000000000000000000 ) ) ;
#87 = DIRECTION ( 'NONE',  ( 0.0000000000000000000, 1.000000000000000000, 0.0000000000000000000 ) ) ;
#88 = CLOSED_SHELL ( 'NONE', ( #5, #191, #175, #160, #215 ) ) ;
#89 = APPROVAL_ROLE ( '' ) ;
#90 = CARTESIAN_POINT ( 'NONE',  ( 2.478951750578624367E-14, 0.4699999999999981970, 7.099999999999999645 ) ) ;
#91 = EDGE_LOOP ( 'NONE', ( #9 ) ) ;
#92 = APPROVAL_ROLE ( '' ) ;
#93 = MANIFOLD_SOLID_BREP ( 'Corps-Déplacer/Copier1[1]', #88 ) ;
#94 = EDGE_LOOP ( 'NONE', ( #115 ) ) ;
#95 = CC_DESIGN_APPROVAL ( #146, ( #194 ) ) ;
#96 = DATE_AND_TIME ( #80, #152 ) ;
#97 = APPROVAL_PERSON_ORGANIZATION ( #182, #133, #10 ) ;
#98 = ORIENTED_EDGE ( 'NONE', *, *, #168, .T. ) ;
#99 = CARTESIAN_POINT ( 'NONE',  ( 9.860100101328225029E-16, 0.4699999999999976974, 0.2824044909429551109 ) ) ;
#100 = CARTESIAN_POINT ( 'NONE',  ( 1.040461438975253740E-13, -3.649447461459112464E-15, 29.80000000000000071 ) ) ;
#101 = CC_DESIGN_PERSON_AND_ORGANIZATION_ASSIGNMENT ( #147, #161, ( #194 ) ) ;
#102 = DIRECTION ( 'NONE',  ( -4.097723285930308764E-31, -1.000000000000000000, -1.153406566473946437E-16 ) ) ;
#103 = DIRECTION ( 'NONE',  ( 4.275831445896959482E-31, 1.000000000000000000, 1.224646799147353207E-16 ) ) ;
#104 = VERTEX_POINT ( 'NONE', #222 ) ;
#105 = EDGE_CURVE ( 'NONE', #155, #155, #1, .T. ) ;
#106 = DATE_TIME_ROLE ( 'creation_date' ) ;
#107 = PERSON_AND_ORGANIZATION ( #79, #61 ) ;
#108 = AXIS2_PLACEMENT_3D ( 'NONE', #145, #127, #29 ) ;
#109 = PERSON_AND_ORGANIZATION_ROLE ( 'classification_officer' ) ;
#110 = DATE_AND_TIME ( #177, #43 ) ;
#111 = ORIENTED_EDGE ( 'NONE', *, *, #105, .F. ) ;
#112 = DATE_TIME_ROLE ( 'classification_date' ) ;
#113 = EDGE_LOOP ( 'NONE', ( #98 ) ) ;
#114 = CIRCLE ( 'NONE', #37, 0.7500000000000000000 ) ;
#115 = ORIENTED_EDGE ( 'NONE', *, *, #64, .T. ) ;
#116 = ADVANCED_FACE ( 'NONE', ( #121 ), #153, .T. ) ;
#117 = FACE_OUTER_BOUND ( 'NONE', #32, .T. ) ;
#118 = CARTESIAN_POINT ( 'NONE',  ( 1.047444401652940007E-13, -3.673940397442059178E-15, 30.00000000000000000 ) ) ;
#119 = AXIS2_PLACEMENT_3D ( 'NONE', #192, #157, #102 ) ;
#120 = PRODUCT_DEFINITION ( 'UNKNOWN', '', #194, #184 ) ;
#121 = FACE_OUTER_BOUND ( 'NONE', #44, .T. ) ;
#122 = CARTESIAN_POINT ( 'NONE',  ( 2.478951750578624367E-14, 3.524435489255345262E-33, 7.099999999999999645 ) ) ;
#123 = CARTESIAN_POINT ( 'NONE',  ( 1.047444401652940007E-13, 0.5499999999999963807, 30.00000000000000000 ) ) ;
#124 = APPROVAL_PERSON_ORGANIZATION ( #72, #146, #92 ) ;
#125 = APPLICATION_PROTOCOL_DEFINITION ( 'international standard', 'config_control_design', 1994, #126 ) ;
#126 = APPLICATION_CONTEXT ( 'configuration controlled 3d designs of mechanical parts and assemblies' ) ;
#127 = DIRECTION ( 'NONE',  ( 0.0000000000000000000, 0.0000000000000000000, 1.000000000000000000 ) ) ;
#128 = AXIS2_PLACEMENT_3D ( 'NONE', #20, #158, #66 ) ;
#129 = ADVANCED_FACE ( 'NONE', ( #3 ), #12, .T. ) ;
#130 =( LENGTH_UNIT ( ) NAMED_UNIT ( * ) SI_UNIT ( .MILLI., .METRE. ) );
#131 = APPROVAL_DATE_TIME ( #110, #146 ) ;
#132 = EDGE_LOOP ( 'NONE', ( #220 ) ) ;
#133 = APPROVAL ( #55, 'UNSPECIFIED' ) ;
#134 = SHAPE_DEFINITION_REPRESENTATION ( #60, #23 ) ;
#135 = CC_DESIGN_DATE_AND_TIME_ASSIGNMENT ( #26, #112, ( #30 ) ) ;
#136 = EDGE_LOOP ( 'NONE', ( #31 ) ) ;
#137 = CARTESIAN_POINT ( 'NONE',  ( 2.648279596610163347E-14, -9.288914407632159543E-16, 7.584974226119288510 ) ) ;
#138 = PRODUCT_RELATED_PRODUCT_CATEGORY ( 'detail', '', ( #77 ) ) ;
#139 = VERTEX_POINT ( 'NONE', #123 ) ;
#140 = CC_DESIGN_APPROVAL ( #14, ( #120 ) ) ;
#141 = VERTEX_POINT ( 'NONE', #170 ) ;
#142 = FACE_BOUND ( 'NONE', #136, .T. ) ;
#143 = COORDINATED_UNIVERSAL_TIME_OFFSET ( 1, 0, .AHEAD. ) ;
#144 = CC_DESIGN_SECURITY_CLASSIFICATION ( #30, ( #194 ) ) ;
#145 = CARTESIAN_POINT ( 'NONE',  ( 0.0000000000000000000, 0.0000000000000000000, 0.0000000000000000000 ) ) ;
#146 = APPROVAL ( #28, 'UNSPECIFIED' ) ;
#147 = PERSON_AND_ORGANIZATION ( #79, #61 ) ;
#148 = PLANE ( 'NONE',  #81 ) ;
#149 = SECURITY_CLASSIFICATION_LEVEL ( 'unclassified' ) ;
#150 = CARTESIAN_POINT ( 'NONE',  ( 2.648279596610163347E-14, -9.288914407632159543E-16, 7.584974226119288510 ) ) ;
#151 = AXIS2_PLACEMENT_3D ( 'NONE', #172, #62, #49 ) ;
#152 = LOCAL_TIME ( 15, 47, 38.00000000000000000, #143 ) ;
#153 = PLANE ( 'NONE',  #169 ) ;
#154 = PLANE ( 'NONE',  #206 ) ;
#155 = VERTEX_POINT ( 'NONE', #2 ) ;
#156 = AXIS2_PLACEMENT_3D ( 'NONE', #203, #33, #84 ) ;
#157 = DIRECTION ( 'NONE',  ( 3.491481338843133355E-15, -1.224646799147353207E-16, 1.000000000000000000 ) ) ;
#158 = DIRECTION ( 'NONE',  ( -3.491481338843133355E-15, 1.224646799147353207E-16, -1.000000000000000000 ) ) ;
#159 = VERTEX_POINT ( 'NONE', #90 ) ;
#160 = ADVANCED_FACE ( 'NONE', ( #221, #16 ), #38, .T. ) ;
#161 = PERSON_AND_ORGANIZATION_ROLE ( 'design_supplier' ) ;
#162 = ORIENTED_EDGE ( 'NONE', *, *, #205, .F. ) ;
#163 = APPROVAL_PERSON_ORGANIZATION ( #107, #14, #89 ) ;
#164 = CONICAL_SURFACE ( 'NONE', #179, 0.7499999999999973355, 0.5235987755982930425 ) ;
#165 = APPLICATION_PROTOCOL_DEFINITION ( 'international standard', 'config_control_design', 1994, #67 ) ;
#166 = DIRECTION ( 'NONE',  ( -4.275831445896958607E-31, -1.000000000000000000, -1.224646799147353207E-16 ) ) ;
#167 = ADVANCED_FACE ( 'NONE', ( #51, #207 ), #35, .T. ) ;
#168 = EDGE_CURVE ( 'NONE', #139, #139, #57, .T. ) ;
#169 = AXIS2_PLACEMENT_3D ( 'NONE', #122, #176, #204 ) ;
#170 = CARTESIAN_POINT ( 'NONE',  ( 1.040461438975253740E-13, 0.7499999999999963363, 29.80000000000000071 ) ) ;
#171 = DIRECTION ( 'NONE',  ( 0.0000000000000000000, 1.000000000000000000, 0.0000000000000000000 ) ) ;
#172 = CARTESIAN_POINT ( 'NONE',  ( 0.0000000000000000000, 0.0000000000000000000, 0.0000000000000000000 ) ) ;
#173 = DIRECTION ( 'NONE',  ( -3.491481338843133355E-15, 1.224646799147353207E-16, -1.000000000000000000 ) ) ;
#174 = AXIS2_PLACEMENT_3D ( 'NONE', #82, #173, #103 ) ;
#175 = ADVANCED_FACE ( 'NONE', ( #36, #117 ), #63, .T. ) ;
#176 = DIRECTION ( 'NONE',  ( 3.491481338843133355E-15, -1.224646799147353207E-16, 1.000000000000000000 ) ) ;
#177 = CALENDAR_DATE ( 2021, 7, 10 ) ;
#178 = CC_DESIGN_PERSON_AND_ORGANIZATION_ASSIGNMENT ( #195, #8, ( #120 ) ) ;
#179 = AXIS2_PLACEMENT_3D ( 'NONE', #137, #189, #34 ) ;
#180 = COORDINATED_UNIVERSAL_TIME_OFFSET ( 1, 0, .AHEAD. ) ;
#181 = ORIENTED_EDGE ( 'NONE', *, *, #185, .F. ) ;
#182 = PERSON_AND_ORGANIZATION ( #79, #61 ) ;
#183 = ORIENTED_EDGE ( 'NONE', *, *, #168, .F. ) ;
#184 = DESIGN_CONTEXT ( 'detailed design', #126, 'design' ) ;
#185 = EDGE_CURVE ( 'NONE', #39, #39, #211, .T. ) ;
#186 = APPROVAL_DATE_TIME ( #96, #133 ) ;
#187 = EDGE_LOOP ( 'NONE', ( #59 ) ) ;
#188 = DIRECTION ( 'NONE',  ( -3.491481338843133355E-15, 1.224646799147353207E-16, -1.000000000000000000 ) ) ;
#189 = DIRECTION ( 'NONE',  ( 3.491481338843133355E-15, -1.224646799147353207E-16, 1.000000000000000000 ) ) ;
#190 = CARTESIAN_POINT ( 'NONE',  ( 1.047444401652940007E-13, -3.673940397442059178E-15, 30.00000000000000000 ) ) ;
#191 = ADVANCED_FACE ( 'NONE', ( #142, #209 ), #164, .T. ) ;
#192 = CARTESIAN_POINT ( 'NONE',  ( 9.860100101328223057E-16, -3.458457558981276210E-17, 0.2824044909429550554 ) ) ;
#193 = CARTESIAN_POINT ( 'NONE',  ( 2.478951750578624367E-14, -8.694992273946207746E-16, 7.099999999999999645 ) ) ;
#194 = PRODUCT_DEFINITION_FORMATION_WITH_SPECIFIED_SOURCE ( 'ANY', '', #77, .NOT_KNOWN. ) ;
#195 = PERSON_AND_ORGANIZATION ( #79, #61 ) ;
#196 = COORDINATED_UNIVERSAL_TIME_OFFSET ( 1, 0, .AHEAD. ) ;
#197 = AXIS2_PLACEMENT_3D ( 'NONE', #150, #208, #86 ) ;
#198 = COORDINATED_UNIVERSAL_TIME_OFFSET ( 1, 0, .AHEAD. ) ;
#199 = PERSON_AND_ORGANIZATION ( #79, #61 ) ;
#200 = FACE_OUTER_BOUND ( 'NONE', #91, .T. ) ;
#201 =( GEOMETRIC_REPRESENTATION_CONTEXT ( 3 ) GLOBAL_UNCERTAINTY_ASSIGNED_CONTEXT ( ( #13 ) ) GLOBAL_UNIT_ASSIGNED_CONTEXT ( ( #130, #41, #45 ) ) REPRESENTATION_CONTEXT ( 'NONE', 'WORKASPACE' ) );
#202 = CLOSED_SHELL ( 'NONE', ( #129, #167, #116 ) ) ;
#203 = CARTESIAN_POINT ( 'NONE',  ( 2.478951750578624367E-14, -8.694992273946207746E-16, 7.099999999999999645 ) ) ;
#204 = DIRECTION ( 'NONE',  ( -4.275831445896958607E-31, -1.000000000000000000, -1.224646799147353207E-16 ) ) ;
#205 = EDGE_CURVE ( 'NONE', #141, #141, #114, .T. ) ;
#206 = AXIS2_PLACEMENT_3D ( 'NONE', #52, #188, #18 ) ;
#207 = FACE_OUTER_BOUND ( 'NONE', #132, .T. ) ;
#208 = DIRECTION ( 'NONE',  ( -3.491481338843133355E-15, 1.224646799147353207E-16, -1.000000000000000000 ) ) ;
#209 = FACE_OUTER_BOUND ( 'NONE', #94, .T. ) ;
#210 = DATE_AND_TIME ( #58, #48 ) ;
#211 = CIRCLE ( 'NONE', #128, 0.4699999999999977529 ) ;
#212 = COORDINATED_UNIVERSAL_TIME_OFFSET ( 1, 0, .AHEAD. ) ;
#213 = LOCAL_TIME ( 15, 47, 38.00000000000000000, #212 ) ;
#214 = CARTESIAN_POINT ( 'NONE',  ( 2.478951750578624367E-14, 3.524435489255345262E-33, 7.099999999999999645 ) ) ;
#215 = ADVANCED_FACE ( 'NONE', ( #17 ), #154, .F. ) ;
#216 = PERSON_AND_ORGANIZATION ( #79, #61 ) ;
#217 = EDGE_LOOP ( 'NONE', ( #181 ) ) ;
#218 = AXIS2_PLACEMENT_3D ( 'NONE', #193, #83, #68 ) ;
#219 = AXIS2_PLACEMENT_3D ( 'NONE', #118, #65, #87 ) ;
#220 = ORIENTED_EDGE ( 'NONE', *, *, #105, .T. ) ;
#221 = FACE_OUTER_BOUND ( 'NONE', #73, .T. ) ;
#222 = CARTESIAN_POINT ( 'NONE',  ( 2.648279596610163347E-14, 0.7499999999999963363, 7.584974226119288510 ) ) ;
#223 = EDGE_CURVE ( 'NONE', #159, #159, #69, .T. ) ;
ENDSEC;
END-ISO-10303-21;
