ISO-10303-21;
HEADER;
FILE_DESCRIPTION (( 'STEP AP203' ),
    '1' );
FILE_NAME ('38082.step',
    '2021-10-07T13:47:38',
    ( '' ),
    ( '' ),
    'SwSTEP 2.0',
    'SolidWorks 2019',
    '' );
FILE_SCHEMA (( 'CONFIG_CONTROL_DESIGN' ));
ENDSEC;

DATA;
#1 = APPROVAL_PERSON_ORGANIZATION ( #89, #16, #117 ) ;
#2 = DIRECTION ( 'NONE',  ( 3.491481338843133355E-15, -1.224646799147353207E-16, 1.000000000000000000 ) ) ;
#3 = CARTESIAN_POINT ( 'NONE',  ( 8.286679872392872699E-16, -2.906576033611924974E-17, 0.2373399445158879129 ) ) ;
#4 = DIRECTION ( 'NONE',  ( -4.275831445896958607E-31, -1.000000000000000000, -1.224646799147353207E-16 ) ) ;
#5 = ORGANIZATION ( 'UNSPECIFIED', 'UNSPECIFIED', '' ) ;
#6 = ADVANCED_FACE ( 'NONE', ( #63, #118 ), #75, .T. ) ;
#7 = PLANE ( 'NONE',  #58 ) ;
#8 = COORDINATED_UNIVERSAL_TIME_OFFSET ( 1, 0, .AHEAD. ) ;
#9 = CIRCLE ( 'NONE', #191, 0.3949999999999991851 ) ;
#10 = DATE_AND_TIME ( #218, #216 ) ;
#11 = PERSON_AND_ORGANIZATION ( #143, #5 ) ;
#12 = ADVANCED_FACE ( 'NONE', ( #48 ), #38, .F. ) ;
#13 = AXIS2_PLACEMENT_3D ( 'NONE', #161, #207, #177 ) ;
#14 = EDGE_LOOP ( 'NONE', ( #135 ) ) ;
#15 = PERSON_AND_ORGANIZATION_ROLE ( 'classification_officer' ) ;
#16 = APPROVAL ( #67, 'UNSPECIFIED' ) ;
#17 = ORIENTED_EDGE ( 'NONE', *, *, #66, .F. ) ;
#18 = APPROVAL_DATE_TIME ( #86, #147 ) ;
#19 = LOCAL_TIME ( 15, 47, 38.00000000000000000, #213 ) ;
#20 = ORIENTED_EDGE ( 'NONE', *, *, #41, .T. ) ;
#21 = ADVANCED_FACE ( 'NONE', ( #77, #91 ), #106, .T. ) ;
#22 = CARTESIAN_POINT ( 'NONE',  ( 1.047444401652940007E-13, 2.999519565323651582E-33, 30.00000000000000000 ) ) ;
#23 = DIRECTION ( 'NONE',  ( 4.275831445896958607E-31, 1.000000000000000000, 1.224646799147353207E-16 ) ) ;
#24 = FACE_OUTER_BOUND ( 'NONE', #221, .T. ) ;
#25 = DIRECTION ( 'NONE',  ( 0.0000000000000000000, 1.000000000000000000, 0.0000000000000000000 ) ) ;
#26 = AXIS2_PLACEMENT_3D ( 'NONE', #3, #111, #148 ) ;
#27 = DIRECTION ( 'NONE',  ( 0.0000000000000000000, 1.000000000000000000, 0.0000000000000000000 ) ) ;
#28 = APPROVAL_ROLE ( '' ) ;
#29 = VERTEX_POINT ( 'NONE', #42 ) ;
#30 = APPLICATION_PROTOCOL_DEFINITION ( 'international standard', 'config_control_design', 1994, #146 ) ;
#31 = CC_DESIGN_APPROVAL ( #16, ( #62 ) ) ;
#32 = APPROVAL ( #185, 'UNSPECIFIED' ) ;
#33 = AXIS2_PLACEMENT_3D ( 'NONE', #55, #165, #194 ) ;
#34 = CARTESIAN_POINT ( 'NONE',  ( 2.336452293848707594E-14, -8.195171462581503864E-16, 6.691865334794734999 ) ) ;
#35 = CARTESIAN_POINT ( 'NONE',  ( 1.047444401652940007E-13, -3.673940397442059178E-15, 30.00000000000000000 ) ) ;
#36 = AXIS2_PLACEMENT_3D ( 'NONE', #82, #190, #80 ) ;
#37 = CC_DESIGN_PERSON_AND_ORGANIZATION_ASSIGNMENT ( #152, #15, ( #62 ) ) ;
#38 = PLANE ( 'NONE',  #46 ) ;
#39 = FACE_OUTER_BOUND ( 'NONE', #120, .T. ) ;
#40 = CYLINDRICAL_SURFACE ( 'NONE', #188, 0.3949999999999987410 ) ;
#41 = EDGE_CURVE ( 'NONE', #56, #56, #76, .T. ) ;
#42 = CARTESIAN_POINT ( 'NONE',  ( 2.199633243471174014E-14, 0.3949999999999984079, 6.299999999999999822 ) ) ;
#43 = PRODUCT_DEFINITION_SHAPE ( 'NONE', 'NONE',  #173 ) ;
#44 = APPROVAL_DATE_TIME ( #169, #32 ) ;
#45 = CC_DESIGN_PERSON_AND_ORGANIZATION_ASSIGNMENT ( #114, #59, ( #175 ) ) ;
#46 = AXIS2_PLACEMENT_3D ( 'NONE', #180, #2, #4 ) ;
#47 = ADVANCED_FACE ( 'NONE', ( #121 ), #126, .T. ) ;
#48 = FACE_OUTER_BOUND ( 'NONE', #204, .T. ) ;
#49 = APPROVAL_DATE_TIME ( #206, #16 ) ;
#50 = AXIS2_PLACEMENT_3D ( 'NONE', #124, #95, #164 ) ;
#51 = EDGE_LOOP ( 'NONE', ( #116 ) ) ;
#52 = EDGE_CURVE ( 'NONE', #105, #105, #159, .T. ) ;
#53 = FACE_OUTER_BOUND ( 'NONE', #217, .T. ) ;
#54 = APPROVAL_PERSON_ORGANIZATION ( #11, #147, #28 ) ;
#55 = CARTESIAN_POINT ( 'NONE',  ( 2.336452293848707594E-14, -8.195171462581503864E-16, 6.691865334794734999 ) ) ;
#56 = VERTEX_POINT ( 'NONE', #197 ) ;
#57 = DIRECTION ( 'NONE',  ( -3.491481338843133355E-15, 1.224646799147353207E-16, -1.000000000000000000 ) ) ;
#58 = AXIS2_PLACEMENT_3D ( 'NONE', #22, #123, #23 ) ;
#59 = PERSON_AND_ORGANIZATION_ROLE ( 'design_owner' ) ;
#60 = DATE_TIME_ROLE ( 'creation_date' ) ;
#61 =( NAMED_UNIT ( * ) SI_UNIT ( $, .STERADIAN. ) SOLID_ANGLE_UNIT ( ) );
#62 = SECURITY_CLASSIFICATION ( '', '', #168 ) ;
#63 = FACE_BOUND ( 'NONE', #176, .T. ) ;
#64 = DIRECTION ( 'NONE',  ( 1.000000000000000000, 0.0000000000000000000, 0.0000000000000000000 ) ) ;
#65 = ORIENTED_EDGE ( 'NONE', *, *, #85, .F. ) ;
#66 = EDGE_CURVE ( 'NONE', #160, #160, #208, .T. ) ;
#67 = APPROVAL_STATUS ( 'not_yet_approved' ) ;
#68 = CALENDAR_DATE ( 2021, 7, 10 ) ;
#69 = ORIENTED_EDGE ( 'NONE', *, *, #203, .F. ) ;
#70 =( GEOMETRIC_REPRESENTATION_CONTEXT ( 3 ) GLOBAL_UNCERTAINTY_ASSIGNED_CONTEXT ( ( #100 ) ) GLOBAL_UNIT_ASSIGNED_CONTEXT ( ( #172, #187, #61 ) ) REPRESENTATION_CONTEXT ( 'NONE', 'WORKASPACE' ) );
#71 = EDGE_CURVE ( 'NONE', #107, #107, #199, .T. ) ;
#72 = ORIENTED_EDGE ( 'NONE', *, *, #71, .T. ) ;
#73 = DIRECTION ( 'NONE',  ( -3.491481338843133355E-15, 1.224646799147353207E-16, -1.000000000000000000 ) ) ;
#74 = FACE_OUTER_BOUND ( 'NONE', #223, .T. ) ;
#75 = CONICAL_SURFACE ( 'NONE', #181, 0.4999999999999971689, 0.2617993877991426910 ) ;
#76 = CIRCLE ( 'NONE', #50, 0.3949999999999991851 ) ;
#77 = FACE_OUTER_BOUND ( 'NONE', #158, .T. ) ;
#78 = APPROVAL_PERSON_ORGANIZATION ( #134, #32, #166 ) ;
#79 = CC_DESIGN_PERSON_AND_ORGANIZATION_ASSIGNMENT ( #128, #112, ( #98 ) ) ;
#80 = DIRECTION ( 'NONE',  ( 4.875772011106946720E-31, 1.000000000000000000, 1.372407813272796196E-16 ) ) ;
#81 = DESIGN_CONTEXT ( 'detailed design', #222, 'design' ) ;
#82 = CARTESIAN_POINT ( 'NONE',  ( 8.286679872392872699E-16, -2.906576033611924974E-17, 0.2373399445158879129 ) ) ;
#83 = CALENDAR_DATE ( 2021, 7, 10 ) ;
#84 = PERSON_AND_ORGANIZATION ( #143, #5 ) ;
#85 = EDGE_CURVE ( 'NONE', #29, #29, #9, .T. ) ;
#86 = DATE_AND_TIME ( #186, #19 ) ;
#87 = PERSON_AND_ORGANIZATION ( #143, #5 ) ;
#88 = CC_DESIGN_PERSON_AND_ORGANIZATION_ASSIGNMENT ( #87, #157, ( #98 ) ) ;
#89 = PERSON_AND_ORGANIZATION ( #143, #5 ) ;
#90 = CC_DESIGN_SECURITY_CLASSIFICATION ( #62, ( #98 ) ) ;
#91 = FACE_BOUND ( 'NONE', #201, .T. ) ;
#92 = CARTESIAN_POINT ( 'NONE',  ( 1.043952920314096936E-13, -3.661693929450586610E-15, 29.90000000000000213 ) ) ;
#93 = CARTESIAN_POINT ( 'NONE',  ( 0.0000000000000000000, 0.0000000000000000000, 0.0000000000000000000 ) ) ;
#94 = DIRECTION ( 'NONE',  ( 4.275831445896958607E-31, 1.000000000000000000, 1.224646799147353207E-16 ) ) ;
#95 = DIRECTION ( 'NONE',  ( -3.491481338843133355E-15, 1.224646799147353207E-16, -1.000000000000000000 ) ) ;
#96 = MECHANICAL_CONTEXT ( 'NONE', #146, 'mechanical' ) ;
#97 = CC_DESIGN_DATE_AND_TIME_ASSIGNMENT ( #10, #133, ( #62 ) ) ;
#98 = PRODUCT_DEFINITION_FORMATION_WITH_SPECIFIED_SOURCE ( 'ANY', '', #175, .NOT_KNOWN. ) ;
#99 = PERSON_AND_ORGANIZATION_ROLE ( 'creator' ) ;
#100 = UNCERTAINTY_MEASURE_WITH_UNIT (LENGTH_MEASURE( 1.000000000000000082E-05 ), #172, 'distance_accuracy_value', 'NONE');
#101 = CARTESIAN_POINT ( 'NONE',  ( 0.0000000000000000000, 0.0000000000000000000, 0.0000000000000000000 ) ) ;
#102 = ADVANCED_FACE ( 'NONE', ( #39 ), #192, .T. ) ;
#103 = ORIENTED_EDGE ( 'NONE', *, *, #85, .T. ) ;
#104 = DIRECTION ( 'NONE',  ( 3.491481338843133355E-15, -1.224646799147353207E-16, 1.000000000000000000 ) ) ;
#105 = VERTEX_POINT ( 'NONE', #162 ) ;
#106 = CONICAL_SURFACE ( 'NONE', #132, 0.3999999999999988565, 0.7853981633974689291 ) ;
#107 = VERTEX_POINT ( 'NONE', #178 ) ;
#108 = COORDINATED_UNIVERSAL_TIME_OFFSET ( 1, 0, .AHEAD. ) ;
#109 = FACE_OUTER_BOUND ( 'NONE', #14, .T. ) ;
#110 = CARTESIAN_POINT ( 'NONE',  ( 0.0000000000000000000, 0.0000000000000000000, 0.0000000000000000000 ) ) ;
#111 = DIRECTION ( 'NONE',  ( 3.491481338843133355E-15, -1.224646799147353207E-16, 1.000000000000000000 ) ) ;
#112 = PERSON_AND_ORGANIZATION_ROLE ( 'creator' ) ;
#113 = DATE_AND_TIME ( #83, #156 ) ;
#114 = PERSON_AND_ORGANIZATION ( #143, #5 ) ;
#115 = CC_DESIGN_PERSON_AND_ORGANIZATION_ASSIGNMENT ( #84, #99, ( #173 ) ) ;
#116 = ORIENTED_EDGE ( 'NONE', *, *, #71, .F. ) ;
#117 = APPROVAL_ROLE ( '' ) ;
#118 = FACE_OUTER_BOUND ( 'NONE', #189, .T. ) ;
#119 = CC_DESIGN_DATE_AND_TIME_ASSIGNMENT ( #113, #60, ( #173 ) ) ;
#120 = EDGE_LOOP ( 'NONE', ( #65 ) ) ;
#121 = FACE_OUTER_BOUND ( 'NONE', #154, .T. ) ;
#122 = CARTESIAN_POINT ( 'NONE',  ( 2.199633243471174014E-14, -7.715274834628325378E-16, 6.299999999999999822 ) ) ;
#123 = DIRECTION ( 'NONE',  ( -3.491481338843133355E-15, 1.224646799147353207E-16, -1.000000000000000000 ) ) ;
#124 = CARTESIAN_POINT ( 'NONE',  ( 2.199633243471174014E-14, -7.715274834628325378E-16, 6.299999999999999822 ) ) ;
#125 = CYLINDRICAL_SURFACE ( 'NONE', #153, 0.4999999999999980571 ) ;
#126 = CONICAL_SURFACE ( 'NONE', #26, 0.3949999999999983524, 1.029744258676649871 ) ;
#127 = ADVANCED_FACE ( 'NONE', ( #74 ), #7, .F. ) ;
#128 = PERSON_AND_ORGANIZATION ( #143, #5 ) ;
#129 = DIRECTION ( 'NONE',  ( 0.0000000000000000000, 0.0000000000000000000, 1.000000000000000000 ) ) ;
#130 = LOCAL_TIME ( 15, 47, 38.00000000000000000, #8 ) ;
#131 = DIRECTION ( 'NONE',  ( 0.0000000000000000000, -1.000000000000000000, 0.0000000000000000000 ) ) ;
#132 = AXIS2_PLACEMENT_3D ( 'NONE', #139, #145, #27 ) ;
#133 = DATE_TIME_ROLE ( 'classification_date' ) ;
#134 = PERSON_AND_ORGANIZATION ( #143, #5 ) ;
#135 = ORIENTED_EDGE ( 'NONE', *, *, #66, .T. ) ;
#136 = AXIS2_PLACEMENT_3D ( 'NONE', #35, #211, #144 ) ;
#137 = DIRECTION ( 'NONE',  ( 0.0000000000000000000, 1.000000000000000000, 0.0000000000000000000 ) ) ;
#138 = SHAPE_DEFINITION_REPRESENTATION ( #43, #210 ) ;
#139 = CARTESIAN_POINT ( 'NONE',  ( 1.047444401652940007E-13, -3.673940397442059178E-15, 30.00000000000000000 ) ) ;
#140 = CLOSED_SHELL ( 'NONE', ( #12, #6, #215, #21, #127 ) ) ;
#141 = ADVANCED_FACE ( 'NONE', ( #193, #53 ), #40, .T. ) ;
#142 = CC_DESIGN_APPROVAL ( #147, ( #98 ) ) ;
#143 = PERSON ( 'UNSPECIFIED', 'UNSPECIFIED', 'UNSPECIFIED', ('UNSPECIFIED'), ('UNSPECIFIED'), ('UNSPECIFIED') ) ;
#144 = DIRECTION ( 'NONE',  ( 0.0000000000000000000, 1.000000000000000000, 0.0000000000000000000 ) ) ;
#145 = DIRECTION ( 'NONE',  ( -3.491481338843133355E-15, 1.224646799147353207E-16, -1.000000000000000000 ) ) ;
#146 = APPLICATION_CONTEXT ( 'configuration controlled 3d designs of mechanical parts and assemblies' ) ;
#147 = APPROVAL ( #171, 'UNSPECIFIED' ) ;
#148 = DIRECTION ( 'NONE',  ( -4.875772011106946720E-31, -1.000000000000000000, -1.372407813272796196E-16 ) ) ;
#149 = CALENDAR_DATE ( 2021, 7, 10 ) ;
#150 = LOCAL_TIME ( 15, 47, 38.00000000000000000, #108 ) ;
#151 = VERTEX_POINT ( 'NONE', #183 ) ;
#152 = PERSON_AND_ORGANIZATION ( #143, #5 ) ;
#153 = AXIS2_PLACEMENT_3D ( 'NONE', #93, #209, #94 ) ;
#154 = EDGE_LOOP ( 'NONE', ( #72 ) ) ;
#155 = COORDINATED_UNIVERSAL_TIME_OFFSET ( 1, 0, .AHEAD. ) ;
#156 = LOCAL_TIME ( 15, 47, 38.00000000000000000, #220 ) ;
#157 = PERSON_AND_ORGANIZATION_ROLE ( 'design_supplier' ) ;
#158 = EDGE_LOOP ( 'NONE', ( #17 ) ) ;
#159 = CIRCLE ( 'NONE', #33, 0.4999999999999971689 ) ;
#160 = VERTEX_POINT ( 'NONE', #205 ) ;
#161 = CARTESIAN_POINT ( 'NONE',  ( 2.199633243471174014E-14, 2.962025570757151396E-33, 6.299999999999999822 ) ) ;
#162 = CARTESIAN_POINT ( 'NONE',  ( 2.336452293848707594E-14, 0.4999999999999963363, 6.691865334794734999 ) ) ;
#163 = AXIS2_PLACEMENT_3D ( 'NONE', #92, #212, #25 ) ;
#164 = DIRECTION ( 'NONE',  ( 0.0000000000000000000, 1.000000000000000000, 0.0000000000000000000 ) ) ;
#165 = DIRECTION ( 'NONE',  ( -3.491481338843133355E-15, 1.224646799147353207E-16, -1.000000000000000000 ) ) ;
#166 = APPROVAL_ROLE ( '' ) ;
#167 = MANIFOLD_SOLID_BREP ( 'Corps-Déplacer/Copier1[1]', #140 ) ;
#168 = SECURITY_CLASSIFICATION_LEVEL ( 'unclassified' ) ;
#169 = DATE_AND_TIME ( #149, #130 ) ;
#170 = ORIENTED_EDGE ( 'NONE', *, *, #203, .T. ) ;
#171 = APPROVAL_STATUS ( 'not_yet_approved' ) ;
#172 =( LENGTH_UNIT ( ) NAMED_UNIT ( * ) SI_UNIT ( .MILLI., .METRE. ) );
#173 = PRODUCT_DEFINITION ( 'UNKNOWN', '', #98, #81 ) ;
#174 = ORIENTED_EDGE ( 'NONE', *, *, #52, .T. ) ;
#175 = PRODUCT ( '38082', '38082', '', ( #96 ) ) ;
#176 = EDGE_LOOP ( 'NONE', ( #202 ) ) ;
#177 = DIRECTION ( 'NONE',  ( -4.275831445896958607E-31, -1.000000000000000000, -1.224646799147353207E-16 ) ) ;
#178 = CARTESIAN_POINT ( 'NONE',  ( 8.286679872392874671E-16, 0.3949999999999983524, 0.2373399445158879684 ) ) ;
#179 = MANIFOLD_SOLID_BREP ( 'Corps-Déplacer/Copier1[2]', #195 ) ;
#180 = CARTESIAN_POINT ( 'NONE',  ( 2.199633243471174014E-14, 2.962025570757151396E-33, 6.299999999999999822 ) ) ;
#181 = AXIS2_PLACEMENT_3D ( 'NONE', #34, #104, #131 ) ;
#182 = DIRECTION ( 'NONE',  ( 4.275831445896958607E-31, 1.000000000000000000, 1.224646799147353207E-16 ) ) ;
#183 = CARTESIAN_POINT ( 'NONE',  ( 1.047444401652940007E-13, 0.3999999999999951927, 30.00000000000000000 ) ) ;
#184 = CC_DESIGN_APPROVAL ( #32, ( #173 ) ) ;
#185 = APPROVAL_STATUS ( 'not_yet_approved' ) ;
#186 = CALENDAR_DATE ( 2021, 7, 10 ) ;
#187 =( NAMED_UNIT ( * ) PLANE_ANGLE_UNIT ( ) SI_UNIT ( $, .RADIAN. ) );
#188 = AXIS2_PLACEMENT_3D ( 'NONE', #110, #57, #182 ) ;
#189 = EDGE_LOOP ( 'NONE', ( #174 ) ) ;
#190 = DIRECTION ( 'NONE',  ( -3.491481338843133355E-15, 1.224646799147353207E-16, -1.000000000000000000 ) ) ;
#191 = AXIS2_PLACEMENT_3D ( 'NONE', #122, #73, #137 ) ;
#192 = PLANE ( 'NONE',  #13 ) ;
#193 = FACE_OUTER_BOUND ( 'NONE', #51, .T. ) ;
#194 = DIRECTION ( 'NONE',  ( 0.0000000000000000000, 1.000000000000000000, 0.0000000000000000000 ) ) ;
#195 = CLOSED_SHELL ( 'NONE', ( #47, #141, #102 ) ) ;
#196 = AXIS2_PLACEMENT_3D ( 'NONE', #101, #129, #64 ) ;
#197 = CARTESIAN_POINT ( 'NONE',  ( 2.199633243471174014E-14, 0.3949999999999984079, 6.299999999999999822 ) ) ;
#198 = APPLICATION_PROTOCOL_DEFINITION ( 'international standard', 'config_control_design', 1994, #222 ) ;
#199 = CIRCLE ( 'NONE', #36, 0.3949999999999983524 ) ;
#200 = ORIENTED_EDGE ( 'NONE', *, *, #52, .F. ) ;
#201 = EDGE_LOOP ( 'NONE', ( #170 ) ) ;
#202 = ORIENTED_EDGE ( 'NONE', *, *, #41, .F. ) ;
#203 = EDGE_CURVE ( 'NONE', #151, #151, #219, .T. ) ;
#204 = EDGE_LOOP ( 'NONE', ( #20 ) ) ;
#205 = CARTESIAN_POINT ( 'NONE',  ( 1.043952920314096936E-13, 0.4999999999999952260, 29.90000000000000213 ) ) ;
#206 = DATE_AND_TIME ( #68, #150 ) ;
#207 = DIRECTION ( 'NONE',  ( 3.491481338843133355E-15, -1.224646799147353207E-16, 1.000000000000000000 ) ) ;
#208 = CIRCLE ( 'NONE', #163, 0.4999999999999989453 ) ;
#209 = DIRECTION ( 'NONE',  ( -3.491481338843133355E-15, 1.224646799147353207E-16, -1.000000000000000000 ) ) ;
#210 = ADVANCED_BREP_SHAPE_REPRESENTATION ( '38082', ( #167, #179, #196 ), #70 ) ;
#211 = DIRECTION ( 'NONE',  ( -3.491481338843133355E-15, 1.224646799147353207E-16, -1.000000000000000000 ) ) ;
#212 = DIRECTION ( 'NONE',  ( -3.491481338843133355E-15, 1.224646799147353207E-16, -1.000000000000000000 ) ) ;
#213 = COORDINATED_UNIVERSAL_TIME_OFFSET ( 1, 0, .AHEAD. ) ;
#214 = PRODUCT_RELATED_PRODUCT_CATEGORY ( 'detail', '', ( #175 ) ) ;
#215 = ADVANCED_FACE ( 'NONE', ( #24, #109 ), #125, .T. ) ;
#216 = LOCAL_TIME ( 15, 47, 38.00000000000000000, #155 ) ;
#217 = EDGE_LOOP ( 'NONE', ( #103 ) ) ;
#218 = CALENDAR_DATE ( 2021, 7, 10 ) ;
#219 = CIRCLE ( 'NONE', #136, 0.3999999999999988565 ) ;
#220 = COORDINATED_UNIVERSAL_TIME_OFFSET ( 1, 0, .AHEAD. ) ;
#221 = EDGE_LOOP ( 'NONE', ( #200 ) ) ;
#222 = APPLICATION_CONTEXT ( 'configuration controlled 3d designs of mechanical parts and assemblies' ) ;
#223 = EDGE_LOOP ( 'NONE', ( #69 ) ) ;
ENDSEC;
END-ISO-10303-21;
