ISO-10303-21;
HEADER;
FILE_DESCRIPTION (( 'STEP AP203' ),
    '1' );
FILE_NAME ('38080.step',
    '2021-10-07T13:47:37',
    ( '' ),
    ( '' ),
    'SwSTEP 2.0',
    'SolidWorks 2019',
    '' );
FILE_SCHEMA (( 'CONFIG_CONTROL_DESIGN' ));
ENDSEC;

DATA;
#1 = DIRECTION ( 'NONE',  ( -3.491481338843133355E-15, 1.224646799147353207E-16, -1.000000000000000000 ) ) ;
#2 = DIRECTION ( 'NONE',  ( -3.491481338843133355E-15, 1.224646799147353207E-16, -1.000000000000000000 ) ) ;
#3 = PRODUCT_DEFINITION ( 'UNKNOWN', '', #17, #202 ) ;
#4 = DIRECTION ( 'NONE',  ( 0.0000000000000000000, 1.000000000000000000, 0.0000000000000000000 ) ) ;
#5 = CIRCLE ( 'NONE', #140, 0.4999999999999970579 ) ;
#6 = CARTESIAN_POINT ( 'NONE',  ( 1.955229549752154679E-14, 2.774555597924417142E-33, 5.599999999999999645 ) ) ;
#7 = DIRECTION ( 'NONE',  ( -4.275831445896958607E-31, -1.000000000000000000, -1.224646799147353207E-16 ) ) ;
#8 = PERSON_AND_ORGANIZATION ( #98, #59 ) ;
#9 = PERSON_AND_ORGANIZATION ( #98, #59 ) ;
#10 =( NAMED_UNIT ( * ) PLANE_ANGLE_UNIT ( ) SI_UNIT ( $, .RADIAN. ) );
#11 = ADVANCED_FACE ( 'NONE', ( #174, #19 ), #188, .T. ) ;
#12 = AXIS2_PLACEMENT_3D ( 'NONE', #6, #112, #162 ) ;
#13 = MANIFOLD_SOLID_BREP ( 'Corps-Déplacer/Copier1[2]', #197 ) ;
#14 = MANIFOLD_SOLID_BREP ( 'Corps-Déplacer/Copier1[1]', #125 ) ;
#15 = CARTESIAN_POINT ( 'NONE',  ( 0.0000000000000000000, 0.0000000000000000000, 0.0000000000000000000 ) ) ;
#16 = DIRECTION ( 'NONE',  ( -3.491481338843133355E-15, 1.224646799147353207E-16, -1.000000000000000000 ) ) ;
#17 = PRODUCT_DEFINITION_FORMATION_WITH_SPECIFIED_SOURCE ( 'ANY', '', #46, .NOT_KNOWN. ) ;
#18 = ADVANCED_BREP_SHAPE_REPRESENTATION ( '38080', ( #14, #13, #152 ), #36 ) ;
#19 = FACE_OUTER_BOUND ( 'NONE', #135, .T. ) ;
#20 = DIRECTION ( 'NONE',  ( 0.0000000000000000000, 1.000000000000000000, 0.0000000000000000000 ) ) ;
#21 = SHAPE_DEFINITION_REPRESENTATION ( #215, #18 ) ;
#22 = DIRECTION ( 'NONE',  ( 3.491481338843133355E-15, -1.224646799147353207E-16, 1.000000000000000000 ) ) ;
#23 = CARTESIAN_POINT ( 'NONE',  ( 0.0000000000000000000, 0.0000000000000000000, 0.0000000000000000000 ) ) ;
#24 = VERTEX_POINT ( 'NONE', #90 ) ;
#25 = CC_DESIGN_PERSON_AND_ORGANIZATION_ASSIGNMENT ( #9, #76, ( #17 ) ) ;
#26 = AXIS2_PLACEMENT_3D ( 'NONE', #113, #88, #40 ) ;
#27 = DIRECTION ( 'NONE',  ( 0.0000000000000000000, 1.000000000000000000, 0.0000000000000000000 ) ) ;
#28 = CALENDAR_DATE ( 2021, 7, 10 ) ;
#29 = DATE_AND_TIME ( #131, #134 ) ;
#30 = CC_DESIGN_PERSON_AND_ORGANIZATION_ASSIGNMENT ( #8, #217, ( #104 ) ) ;
#31 = APPROVAL_ROLE ( '' ) ;
#32 = CALENDAR_DATE ( 2021, 7, 10 ) ;
#33 = AXIS2_PLACEMENT_3D ( 'NONE', #23, #42, #74 ) ;
#34 = COORDINATED_UNIVERSAL_TIME_OFFSET ( 1, 0, .AHEAD. ) ;
#35 = EDGE_LOOP ( 'NONE', ( #38 ) ) ;
#36 =( GEOMETRIC_REPRESENTATION_CONTEXT ( 3 ) GLOBAL_UNCERTAINTY_ASSIGNED_CONTEXT ( ( #166 ) ) GLOBAL_UNIT_ASSIGNED_CONTEXT ( ( #151, #10, #94 ) ) REPRESENTATION_CONTEXT ( 'NONE', 'WORKASPACE' ) );
#37 = ORIENTED_EDGE ( 'NONE', *, *, #81, .F. ) ;
#38 = ORIENTED_EDGE ( 'NONE', *, *, #207, .T. ) ;
#39 = EDGE_CURVE ( 'NONE', #143, #143, #130, .T. ) ;
#40 = DIRECTION ( 'NONE',  ( 4.275831445896958607E-31, 1.000000000000000000, 1.224646799147353207E-16 ) ) ;
#41 = CIRCLE ( 'NONE', #148, 0.3699999999999988298 ) ;
#42 = DIRECTION ( 'NONE',  ( -3.491481338843133355E-15, 1.224646799147353207E-16, -1.000000000000000000 ) ) ;
#43 = FACE_OUTER_BOUND ( 'NONE', #203, .T. ) ;
#44 = PLANE ( 'NONE',  #12 ) ;
#45 = APPROVAL ( #65, 'UNSPECIFIED' ) ;
#46 = PRODUCT ( '38080', '38080', '', ( #68 ) ) ;
#47 = PERSON_AND_ORGANIZATION ( #98, #59 ) ;
#48 = PERSON_AND_ORGANIZATION_ROLE ( 'creator' ) ;
#49 = ADVANCED_FACE ( 'NONE', ( #43 ), #44, .T. ) ;
#50 = PERSON_AND_ORGANIZATION_ROLE ( 'design_owner' ) ;
#51 = DATE_AND_TIME ( #97, #220 ) ;
#52 = ORIENTED_EDGE ( 'NONE', *, *, #207, .F. ) ;
#53 = VERTEX_POINT ( 'NONE', #95 ) ;
#54 = DIRECTION ( 'NONE',  ( 4.275831445896958607E-31, 1.000000000000000000, 1.224646799147353207E-16 ) ) ;
#55 = CC_DESIGN_DATE_AND_TIME_ASSIGNMENT ( #29, #64, ( #104 ) ) ;
#56 = ORIENTED_EDGE ( 'NONE', *, *, #81, .T. ) ;
#57 = CALENDAR_DATE ( 2021, 7, 10 ) ;
#58 = CARTESIAN_POINT ( 'NONE',  ( 1.955229549752154679E-14, 0.3699999999999981637, 5.599999999999999645 ) ) ;
#59 = ORGANIZATION ( 'UNSPECIFIED', 'UNSPECIFIED', '' ) ;
#60 = VERTEX_POINT ( 'NONE', #179 ) ;
#61 = FACE_BOUND ( 'NONE', #205, .T. ) ;
#62 = FACE_OUTER_BOUND ( 'NONE', #67, .T. ) ;
#63 = AXIS2_PLACEMENT_3D ( 'NONE', #147, #210, #128 ) ;
#64 = DATE_TIME_ROLE ( 'classification_date' ) ;
#65 = APPROVAL_STATUS ( 'not_yet_approved' ) ;
#66 = LOCAL_TIME ( 15, 47, 37.00000000000000000, #132 ) ;
#67 = EDGE_LOOP ( 'NONE', ( #105 ) ) ;
#68 = MECHANICAL_CONTEXT ( 'NONE', #170, 'mechanical' ) ;
#69 = DATE_AND_TIME ( #28, #73 ) ;
#70 = FACE_OUTER_BOUND ( 'NONE', #121, .T. ) ;
#71 = DIRECTION ( 'NONE',  ( 0.0000000000000000000, 1.000000000000000000, 0.0000000000000000000 ) ) ;
#72 = VERTEX_POINT ( 'NONE', #161 ) ;
#73 = LOCAL_TIME ( 15, 47, 37.00000000000000000, #222 ) ;
#74 = DIRECTION ( 'NONE',  ( 4.275831445896958607E-31, 1.000000000000000000, 1.224646799147353207E-16 ) ) ;
#75 = DIRECTION ( 'NONE',  ( -3.491481338843133355E-15, 1.224646799147353207E-16, -1.000000000000000000 ) ) ;
#76 = PERSON_AND_ORGANIZATION_ROLE ( 'design_supplier' ) ;
#77 = PERSON_AND_ORGANIZATION ( #98, #59 ) ;
#78 = PERSON_AND_ORGANIZATION ( #98, #59 ) ;
#79 = CONICAL_SURFACE ( 'NONE', #96, 0.4999999999999970579, 0.2617993877991433571 ) ;
#80 = EDGE_LOOP ( 'NONE', ( #52 ) ) ;
#81 = EDGE_CURVE ( 'NONE', #72, #72, #5, .T. ) ;
#82 = APPROVAL_STATUS ( 'not_yet_approved' ) ;
#83 = CONICAL_SURFACE ( 'NONE', #63, 0.3999999999999988565, 0.7853981633974689291 ) ;
#84 = PRODUCT_RELATED_PRODUCT_CATEGORY ( 'detail', '', ( #46 ) ) ;
#85 = CONICAL_SURFACE ( 'NONE', #218, 0.3699999999999983857, 1.029744258676649871 ) ;
#86 = FACE_OUTER_BOUND ( 'NONE', #107, .T. ) ;
#87 = DIRECTION ( 'NONE',  ( 0.0000000000000000000, -1.000000000000000000, 0.0000000000000000000 ) ) ;
#88 = DIRECTION ( 'NONE',  ( -3.491481338843133355E-15, 1.224646799147353207E-16, -1.000000000000000000 ) ) ;
#89 = CC_DESIGN_PERSON_AND_ORGANIZATION_ASSIGNMENT ( #172, #50, ( #46 ) ) ;
#90 = CARTESIAN_POINT ( 'NONE',  ( 1.043952920314096936E-13, 0.4999999999999952260, 29.90000000000000213 ) ) ;
#91 = CC_DESIGN_SECURITY_CLASSIFICATION ( #104, ( #17 ) ) ;
#92 = FACE_OUTER_BOUND ( 'NONE', #35, .T. ) ;
#93 = ADVANCED_FACE ( 'NONE', ( #86, #213 ), #158, .T. ) ;
#94 =( NAMED_UNIT ( * ) SI_UNIT ( $, .STERADIAN. ) SOLID_ANGLE_UNIT ( ) );
#95 = CARTESIAN_POINT ( 'NONE',  ( 1.955229549752154679E-14, 0.3699999999999981637, 5.599999999999999645 ) ) ;
#96 = AXIS2_PLACEMENT_3D ( 'NONE', #123, #22, #87 ) ;
#97 = CALENDAR_DATE ( 2021, 7, 10 ) ;
#98 = PERSON ( 'UNSPECIFIED', 'UNSPECIFIED', 'UNSPECIFIED', ('UNSPECIFIED'), ('UNSPECIFIED'), ('UNSPECIFIED') ) ;
#99 = ADVANCED_FACE ( 'NONE', ( #178, #61 ), #83, .T. ) ;
#100 = AXIS2_PLACEMENT_3D ( 'NONE', #209, #146, #111 ) ;
#101 = EDGE_LOOP ( 'NONE', ( #138 ) ) ;
#102 = APPLICATION_CONTEXT ( 'configuration controlled 3d designs of mechanical parts and assemblies' ) ;
#103 = APPROVAL_DATE_TIME ( #51, #194 ) ;
#104 = SECURITY_CLASSIFICATION ( '', '', #183 ) ;
#105 = ORIENTED_EDGE ( 'NONE', *, *, #165, .F. ) ;
#106 = CC_DESIGN_DATE_AND_TIME_ASSIGNMENT ( #69, #185, ( #3 ) ) ;
#107 = EDGE_LOOP ( 'NONE', ( #137 ) ) ;
#108 = DATE_AND_TIME ( #57, #66 ) ;
#109 = CARTESIAN_POINT ( 'NONE',  ( 7.762206462747752626E-16, -2.722615525155473535E-17, 0.2223184290401987451 ) ) ;
#110 = APPROVAL_PERSON_ORGANIZATION ( #77, #45, #149 ) ;
#111 = DIRECTION ( 'NONE',  ( 0.0000000000000000000, 1.000000000000000000, 0.0000000000000000000 ) ) ;
#112 = DIRECTION ( 'NONE',  ( 3.491481338843133355E-15, -1.224646799147353207E-16, 1.000000000000000000 ) ) ;
#113 = CARTESIAN_POINT ( 'NONE',  ( 1.047444401652940007E-13, 2.999519565323651582E-33, 30.00000000000000000 ) ) ;
#114 = DIRECTION ( 'NONE',  ( -3.491481338843133355E-15, 1.224646799147353207E-16, -1.000000000000000000 ) ) ;
#115 = APPROVAL_STATUS ( 'not_yet_approved' ) ;
#116 = DIRECTION ( 'NONE',  ( 1.000000000000000000, 0.0000000000000000000, 0.0000000000000000000 ) ) ;
#117 = AXIS2_PLACEMENT_3D ( 'NONE', #195, #1, #4 ) ;
#118 = PERSON_AND_ORGANIZATION_ROLE ( 'creator' ) ;
#119 = CIRCLE ( 'NONE', #117, 0.4999999999999989453 ) ;
#120 = ORIENTED_EDGE ( 'NONE', *, *, #124, .T. ) ;
#121 = EDGE_LOOP ( 'NONE', ( #56 ) ) ;
#122 = ADVANCED_FACE ( 'NONE', ( #92 ), #196, .F. ) ;
#123 = CARTESIAN_POINT ( 'NONE',  ( 2.124624564505292079E-14, -7.452179805071972090E-16, 6.085166604983959004 ) ) ;
#124 = EDGE_CURVE ( 'NONE', #145, #145, #187, .T. ) ;
#125 = CLOSED_SHELL ( 'NONE', ( #122, #182, #11, #99, #133 ) ) ;
#126 = FACE_BOUND ( 'NONE', #80, .T. ) ;
#127 = DIRECTION ( 'NONE',  ( 3.491481338843133355E-15, -1.224646799147353207E-16, 1.000000000000000000 ) ) ;
#128 = DIRECTION ( 'NONE',  ( 0.0000000000000000000, 1.000000000000000000, 0.0000000000000000000 ) ) ;
#129 = PLANE ( 'NONE',  #26 ) ;
#130 = CIRCLE ( 'NONE', #100, 0.3699999999999988298 ) ;
#131 = CALENDAR_DATE ( 2021, 7, 10 ) ;
#132 = COORDINATED_UNIVERSAL_TIME_OFFSET ( 1, 0, .AHEAD. ) ;
#133 = ADVANCED_FACE ( 'NONE', ( #62 ), #129, .F. ) ;
#134 = LOCAL_TIME ( 15, 47, 37.00000000000000000, #167 ) ;
#135 = EDGE_LOOP ( 'NONE', ( #223 ) ) ;
#136 = AXIS2_PLACEMENT_3D ( 'NONE', #163, #191, #7 ) ;
#137 = ORIENTED_EDGE ( 'NONE', *, *, #124, .F. ) ;
#138 = ORIENTED_EDGE ( 'NONE', *, *, #39, .T. ) ;
#139 = ADVANCED_FACE ( 'NONE', ( #198 ), #85, .T. ) ;
#140 = AXIS2_PLACEMENT_3D ( 'NONE', #180, #114, #27 ) ;
#141 = CC_DESIGN_APPROVAL ( #45, ( #104 ) ) ;
#142 = DIRECTION ( 'NONE',  ( -3.491481338843133355E-15, 1.224646799147353207E-16, -1.000000000000000000 ) ) ;
#143 = VERTEX_POINT ( 'NONE', #58 ) ;
#144 = APPROVAL_PERSON_ORGANIZATION ( #47, #155, #181 ) ;
#145 = VERTEX_POINT ( 'NONE', #212 ) ;
#146 = DIRECTION ( 'NONE',  ( -3.491481338843133355E-15, 1.224646799147353207E-16, -1.000000000000000000 ) ) ;
#147 = CARTESIAN_POINT ( 'NONE',  ( 1.047444401652940007E-13, -3.673940397442059178E-15, 30.00000000000000000 ) ) ;
#148 = AXIS2_PLACEMENT_3D ( 'NONE', #160, #2, #71 ) ;
#149 = APPROVAL_ROLE ( '' ) ;
#150 = AXIS2_PLACEMENT_3D ( 'NONE', #177, #142, #20 ) ;
#151 =( LENGTH_UNIT ( ) NAMED_UNIT ( * ) SI_UNIT ( .MILLI., .METRE. ) );
#152 = AXIS2_PLACEMENT_3D ( 'NONE', #15, #219, #116 ) ;
#153 = PERSON_AND_ORGANIZATION ( #98, #59 ) ;
#154 = EDGE_LOOP ( 'NONE', ( #120 ) ) ;
#155 = APPROVAL ( #115, 'UNSPECIFIED' ) ;
#156 = ORIENTED_EDGE ( 'NONE', *, *, #165, .T. ) ;
#157 = AXIS2_PLACEMENT_3D ( 'NONE', #171, #16, #54 ) ;
#158 = CYLINDRICAL_SURFACE ( 'NONE', #33, 0.3699999999999986078 ) ;
#159 = APPROVAL_DATE_TIME ( #108, #45 ) ;
#160 = CARTESIAN_POINT ( 'NONE',  ( 1.955229549752154679E-14, -6.858022075225177566E-16, 5.599999999999999645 ) ) ;
#161 = CARTESIAN_POINT ( 'NONE',  ( 2.124624564505292079E-14, 0.4999999999999963363, 6.085166604983959004 ) ) ;
#162 = DIRECTION ( 'NONE',  ( -4.275831445896958607E-31, -1.000000000000000000, -1.224646799147353207E-16 ) ) ;
#163 = CARTESIAN_POINT ( 'NONE',  ( 1.955229549752154679E-14, 2.774555597924417142E-33, 5.599999999999999645 ) ) ;
#164 = APPROVAL_DATE_TIME ( #186, #155 ) ;
#165 = EDGE_CURVE ( 'NONE', #60, #60, #216, .T. ) ;
#166 = UNCERTAINTY_MEASURE_WITH_UNIT (LENGTH_MEASURE( 1.000000000000000082E-05 ), #151, 'distance_accuracy_value', 'NONE');
#167 = COORDINATED_UNIVERSAL_TIME_OFFSET ( 1, 0, .AHEAD. ) ;
#168 = COORDINATED_UNIVERSAL_TIME_OFFSET ( 1, 0, .AHEAD. ) ;
#169 = EDGE_CURVE ( 'NONE', #24, #24, #119, .T. ) ;
#170 = APPLICATION_CONTEXT ( 'configuration controlled 3d designs of mechanical parts and assemblies' ) ;
#171 = CARTESIAN_POINT ( 'NONE',  ( 0.0000000000000000000, 0.0000000000000000000, 0.0000000000000000000 ) ) ;
#172 = PERSON_AND_ORGANIZATION ( #98, #59 ) ;
#173 = LOCAL_TIME ( 15, 47, 37.00000000000000000, #168 ) ;
#174 = FACE_OUTER_BOUND ( 'NONE', #175, .T. ) ;
#175 = EDGE_LOOP ( 'NONE', ( #37 ) ) ;
#176 = CARTESIAN_POINT ( 'NONE',  ( 7.762206462747752626E-16, -2.722615525155473535E-17, 0.2223184290401987451 ) ) ;
#177 = CARTESIAN_POINT ( 'NONE',  ( 1.047444401652940007E-13, -3.673940397442059178E-15, 30.00000000000000000 ) ) ;
#178 = FACE_OUTER_BOUND ( 'NONE', #208, .T. ) ;
#179 = CARTESIAN_POINT ( 'NONE',  ( 1.047444401652940007E-13, 0.3999999999999951927, 30.00000000000000000 ) ) ;
#180 = CARTESIAN_POINT ( 'NONE',  ( 2.124624564505292079E-14, -7.452179805071972090E-16, 6.085166604983959004 ) ) ;
#181 = APPROVAL_ROLE ( '' ) ;
#182 = ADVANCED_FACE ( 'NONE', ( #126, #70 ), #79, .T. ) ;
#183 = SECURITY_CLASSIFICATION_LEVEL ( 'unclassified' ) ;
#184 = CC_DESIGN_APPROVAL ( #194, ( #3 ) ) ;
#185 = DATE_TIME_ROLE ( 'creation_date' ) ;
#186 = DATE_AND_TIME ( #32, #173 ) ;
#187 = CIRCLE ( 'NONE', #192, 0.3699999999999983857 ) ;
#188 = CYLINDRICAL_SURFACE ( 'NONE', #157, 0.4999999999999980571 ) ;
#189 = APPLICATION_PROTOCOL_DEFINITION ( 'international standard', 'config_control_design', 1994, #102 ) ;
#190 = CC_DESIGN_PERSON_AND_ORGANIZATION_ASSIGNMENT ( #153, #118, ( #3 ) ) ;
#191 = DIRECTION ( 'NONE',  ( 3.491481338843133355E-15, -1.224646799147353207E-16, 1.000000000000000000 ) ) ;
#192 = AXIS2_PLACEMENT_3D ( 'NONE', #176, #75, #214 ) ;
#193 = DIRECTION ( 'NONE',  ( -5.205216065911470597E-31, -1.000000000000000000, -1.465138070926363633E-16 ) ) ;
#194 = APPROVAL ( #82, 'UNSPECIFIED' ) ;
#195 = CARTESIAN_POINT ( 'NONE',  ( 1.043952920314096936E-13, -3.661693929450586610E-15, 29.90000000000000213 ) ) ;
#196 = PLANE ( 'NONE',  #136 ) ;
#197 = CLOSED_SHELL ( 'NONE', ( #139, #93, #49 ) ) ;
#198 = FACE_OUTER_BOUND ( 'NONE', #154, .T. ) ;
#199 = CC_DESIGN_PERSON_AND_ORGANIZATION_ASSIGNMENT ( #78, #48, ( #17 ) ) ;
#200 = CC_DESIGN_APPROVAL ( #155, ( #17 ) ) ;
#201 = APPLICATION_PROTOCOL_DEFINITION ( 'international standard', 'config_control_design', 1994, #170 ) ;
#202 = DESIGN_CONTEXT ( 'detailed design', #102, 'design' ) ;
#203 = EDGE_LOOP ( 'NONE', ( #206 ) ) ;
#204 = PERSON_AND_ORGANIZATION ( #98, #59 ) ;
#205 = EDGE_LOOP ( 'NONE', ( #156 ) ) ;
#206 = ORIENTED_EDGE ( 'NONE', *, *, #39, .F. ) ;
#207 = EDGE_CURVE ( 'NONE', #53, #53, #41, .T. ) ;
#208 = EDGE_LOOP ( 'NONE', ( #221 ) ) ;
#209 = CARTESIAN_POINT ( 'NONE',  ( 1.955229549752154679E-14, -6.858022075225177566E-16, 5.599999999999999645 ) ) ;
#210 = DIRECTION ( 'NONE',  ( -3.491481338843133355E-15, 1.224646799147353207E-16, -1.000000000000000000 ) ) ;
#211 = APPROVAL_PERSON_ORGANIZATION ( #204, #194, #31 ) ;
#212 = CARTESIAN_POINT ( 'NONE',  ( 7.762206462747753612E-16, 0.3699999999999983302, 0.2223184290401988006 ) ) ;
#213 = FACE_OUTER_BOUND ( 'NONE', #101, .T. ) ;
#214 = DIRECTION ( 'NONE',  ( 5.205216065911470597E-31, 1.000000000000000000, 1.465138070926363633E-16 ) ) ;
#215 = PRODUCT_DEFINITION_SHAPE ( 'NONE', 'NONE',  #3 ) ;
#216 = CIRCLE ( 'NONE', #150, 0.3999999999999988565 ) ;
#217 = PERSON_AND_ORGANIZATION_ROLE ( 'classification_officer' ) ;
#218 = AXIS2_PLACEMENT_3D ( 'NONE', #109, #127, #193 ) ;
#219 = DIRECTION ( 'NONE',  ( 0.0000000000000000000, 0.0000000000000000000, 1.000000000000000000 ) ) ;
#220 = LOCAL_TIME ( 15, 47, 37.00000000000000000, #34 ) ;
#221 = ORIENTED_EDGE ( 'NONE', *, *, #169, .F. ) ;
#222 = COORDINATED_UNIVERSAL_TIME_OFFSET ( 1, 0, .AHEAD. ) ;
#223 = ORIENTED_EDGE ( 'NONE', *, *, #169, .T. ) ;
ENDSEC;
END-ISO-10303-21;
