ISO-10303-21;
HEADER;
FILE_DESCRIPTION (( 'STEP AP203' ),
    '1' );
FILE_NAME ('38078.step',
    '2021-10-07T13:47:36',
    ( '' ),
    ( '' ),
    'SwSTEP 2.0',
    'SolidWorks 2019',
    '' );
FILE_SCHEMA (( 'CONFIG_CONTROL_DESIGN' ));
ENDSEC;

DATA;
#1 = AXIS2_PLACEMENT_3D ( 'NONE', #96, #39, #192 ) ;
#2 = COORDINATED_UNIVERSAL_TIME_OFFSET ( 1, 0, .AHEAD. ) ;
#3 = PERSON_AND_ORGANIZATION ( #151, #20 ) ;
#4 = EDGE_CURVE ( 'NONE', #150, #150, #127, .T. ) ;
#5 = CONICAL_SURFACE ( 'NONE', #137, 0.4999999999999970579, 0.2617993877991420248 ) ;
#6 = APPLICATION_CONTEXT ( 'configuration controlled 3d designs of mechanical parts and assemblies' ) ;
#7 = EDGE_CURVE ( 'NONE', #133, #133, #108, .T. ) ;
#8 = COORDINATED_UNIVERSAL_TIME_OFFSET ( 1, 0, .AHEAD. ) ;
#9 = CIRCLE ( 'NONE', #15, 0.3549999999999994826 ) ;
#10 = DIRECTION ( 'NONE',  ( -4.275831445896958607E-31, -1.000000000000000000, -1.224646799147353207E-16 ) ) ;
#11 = EDGE_LOOP ( 'NONE', ( #19 ) ) ;
#12 = CARTESIAN_POINT ( 'NONE',  ( 1.955229549752154679E-14, -6.858022075225177566E-16, 5.599999999999999645 ) ) ;
#13 = ORIENTED_EDGE ( 'NONE', *, *, #172, .F. ) ;
#14 = FACE_BOUND ( 'NONE', #11, .T. ) ;
#15 = AXIS2_PLACEMENT_3D ( 'NONE', #217, #130, #48 ) ;
#16 = FACE_OUTER_BOUND ( 'NONE', #219, .T. ) ;
#17 = DIRECTION ( 'NONE',  ( -3.491481338843133355E-15, 1.224646799147353207E-16, -1.000000000000000000 ) ) ;
#18 = MECHANICAL_CONTEXT ( 'NONE', #92, 'mechanical' ) ;
#19 = ORIENTED_EDGE ( 'NONE', *, *, #4, .T. ) ;
#20 = ORGANIZATION ( 'UNSPECIFIED', 'UNSPECIFIED', '' ) ;
#21 = MANIFOLD_SOLID_BREP ( 'Corps-Déplacer/Copier1[2]', #183 ) ;
#22 = DATE_TIME_ROLE ( 'creation_date' ) ;
#23 = AXIS2_PLACEMENT_3D ( 'NONE', #114, #33, #186 ) ;
#24 = ADVANCED_BREP_SHAPE_REPRESENTATION ( '38078', ( #97, #21, #1 ), #123 ) ;
#25 = EDGE_CURVE ( 'NONE', #178, #178, #9, .T. ) ;
#26 = AXIS2_PLACEMENT_3D ( 'NONE', #205, #17, #87 ) ;
#27 = EDGE_LOOP ( 'NONE', ( #13 ) ) ;
#28 = PLANE ( 'NONE',  #100 ) ;
#29 = DIRECTION ( 'NONE',  ( 3.491481338843133355E-15, -1.224646799147353207E-16, 1.000000000000000000 ) ) ;
#30 = DIRECTION ( 'NONE',  ( -3.491481338843133355E-15, 1.224646799147353207E-16, -1.000000000000000000 ) ) ;
#31 = LOCAL_TIME ( 15, 47, 36.00000000000000000, #222 ) ;
#32 = PRODUCT_RELATED_PRODUCT_CATEGORY ( 'detail', '', ( #214 ) ) ;
#33 = DIRECTION ( 'NONE',  ( -3.491481338843133355E-15, 1.224646799147353207E-16, -1.000000000000000000 ) ) ;
#34 = FACE_OUTER_BOUND ( 'NONE', #91, .T. ) ;
#35 =( NAMED_UNIT ( * ) SI_UNIT ( $, .STERADIAN. ) SOLID_ANGLE_UNIT ( ) );
#36 = AXIS2_PLACEMENT_3D ( 'NONE', #215, #53, #148 ) ;
#37 = EDGE_LOOP ( 'NONE', ( #113 ) ) ;
#38 = CALENDAR_DATE ( 2021, 7, 10 ) ;
#39 = DIRECTION ( 'NONE',  ( 0.0000000000000000000, 0.0000000000000000000, 1.000000000000000000 ) ) ;
#40 = LOCAL_TIME ( 15, 47, 36.00000000000000000, #74 ) ;
#41 = APPROVAL_PERSON_ORGANIZATION ( #162, #60, #109 ) ;
#42 = DESIGN_CONTEXT ( 'detailed design', #6, 'design' ) ;
#43 = ORIENTED_EDGE ( 'NONE', *, *, #128, .F. ) ;
#44 = ADVANCED_FACE ( 'NONE', ( #82, #67 ), #5, .T. ) ;
#45 = CC_DESIGN_APPROVAL ( #60, ( #153 ) ) ;
#46 = CARTESIAN_POINT ( 'NONE',  ( 2.144170143130654245E-14, -7.520736466208141713E-16, 6.141147367097494758 ) ) ;
#47 = DIRECTION ( 'NONE',  ( 0.0000000000000000000, 1.000000000000000000, 0.0000000000000000000 ) ) ;
#48 = DIRECTION ( 'NONE',  ( 0.0000000000000000000, 1.000000000000000000, 0.0000000000000000000 ) ) ;
#49 = CC_DESIGN_PERSON_AND_ORGANIZATION_ASSIGNMENT ( #196, #181, ( #159 ) ) ;
#50 = DIRECTION ( 'NONE',  ( 0.0000000000000000000, 1.000000000000000000, 0.0000000000000000000 ) ) ;
#51 = AXIS2_PLACEMENT_3D ( 'NONE', #46, #30, #65 ) ;
#52 = ORIENTED_EDGE ( 'NONE', *, *, #56, .T. ) ;
#53 = DIRECTION ( 'NONE',  ( -3.491481338843133355E-15, 1.224646799147353207E-16, -1.000000000000000000 ) ) ;
#54 = PERSON_AND_ORGANIZATION ( #151, #20 ) ;
#55 = CARTESIAN_POINT ( 'NONE',  ( 1.955229549752154679E-14, 0.3549999999999987610, 5.599999999999999645 ) ) ;
#56 = EDGE_CURVE ( 'NONE', #93, #93, #197, .T. ) ;
#57 = CIRCLE ( 'NONE', #200, 0.3549999999999983724 ) ;
#58 = VERTEX_POINT ( 'NONE', #71 ) ;
#59 = PERSON_AND_ORGANIZATION ( #151, #20 ) ;
#60 = APPROVAL ( #199, 'UNSPECIFIED' ) ;
#61 = AXIS2_PLACEMENT_3D ( 'NONE', #126, #147, #188 ) ;
#62 = APPROVAL_PERSON_ORGANIZATION ( #3, #138, #158 ) ;
#63 = EDGE_LOOP ( 'NONE', ( #88 ) ) ;
#64 = EDGE_LOOP ( 'NONE', ( #179 ) ) ;
#65 = DIRECTION ( 'NONE',  ( 0.0000000000000000000, 1.000000000000000000, 0.0000000000000000000 ) ) ;
#66 = DIRECTION ( 'NONE',  ( 3.491481338843133355E-15, -1.224646799147353207E-16, 1.000000000000000000 ) ) ;
#67 = FACE_OUTER_BOUND ( 'NONE', #164, .T. ) ;
#68 = CYLINDRICAL_SURFACE ( 'NONE', #26, 0.3549999999999989275 ) ;
#69 = CARTESIAN_POINT ( 'NONE',  ( 1.047444401652940007E-13, 0.3999999999999951927, 30.00000000000000000 ) ) ;
#70 =( NAMED_UNIT ( * ) PLANE_ANGLE_UNIT ( ) SI_UNIT ( $, .RADIAN. ) );
#71 = CARTESIAN_POINT ( 'NONE',  ( 2.144170143130654245E-14, 0.4999999999999963363, 6.141147367097494758 ) ) ;
#72 = VERTEX_POINT ( 'NONE', #105 ) ;
#73 = CONICAL_SURFACE ( 'NONE', #187, 0.3549999999999983724, 1.029744258676649649 ) ;
#74 = COORDINATED_UNIVERSAL_TIME_OFFSET ( 1, 0, .AHEAD. ) ;
#75 = CC_DESIGN_DATE_AND_TIME_ASSIGNMENT ( #125, #165, ( #153 ) ) ;
#76 = SECURITY_CLASSIFICATION_LEVEL ( 'unclassified' ) ;
#77 = AXIS2_PLACEMENT_3D ( 'NONE', #12, #168, #47 ) ;
#78 = ORIENTED_EDGE ( 'NONE', *, *, #7, .T. ) ;
#79 = DATE_AND_TIME ( #163, #206 ) ;
#80 = ORIENTED_EDGE ( 'NONE', *, *, #4, .F. ) ;
#81 = DIRECTION ( 'NONE',  ( -3.491481338843133355E-15, 1.224646799147353207E-16, -1.000000000000000000 ) ) ;
#82 = FACE_BOUND ( 'NONE', #37, .T. ) ;
#83 = APPROVAL_PERSON_ORGANIZATION ( #54, #85, #89 ) ;
#84 = CARTESIAN_POINT ( 'NONE',  ( 1.047444401652940007E-13, -3.673940397442059178E-15, 30.00000000000000000 ) ) ;
#85 = APPROVAL ( #104, 'UNSPECIFIED' ) ;
#86 = CYLINDRICAL_SURFACE ( 'NONE', #23, 0.4999999999999980571 ) ;
#87 = DIRECTION ( 'NONE',  ( 4.275831445896958607E-31, 1.000000000000000000, 1.224646799147353207E-16 ) ) ;
#88 = ORIENTED_EDGE ( 'NONE', *, *, #25, .T. ) ;
#89 = APPROVAL_ROLE ( '' ) ;
#90 = CIRCLE ( 'NONE', #51, 0.4999999999999970579 ) ;
#91 = EDGE_LOOP ( 'NONE', ( #52 ) ) ;
#92 = APPLICATION_CONTEXT ( 'configuration controlled 3d designs of mechanical parts and assemblies' ) ;
#93 = VERTEX_POINT ( 'NONE', #194 ) ;
#94 = APPROVAL_STATUS ( 'not_yet_approved' ) ;
#95 = CONICAL_SURFACE ( 'NONE', #191, 0.3999999999999988565, 0.7853981633974689291 ) ;
#96 = CARTESIAN_POINT ( 'NONE',  ( 0.0000000000000000000, 0.0000000000000000000, 0.0000000000000000000 ) ) ;
#97 = MANIFOLD_SOLID_BREP ( 'Corps-Déplacer/Copier1[1]', #177 ) ;
#98 = AXIS2_PLACEMENT_3D ( 'NONE', #203, #29, #10 ) ;
#99 = DIRECTION ( 'NONE',  ( -3.491481338843133355E-15, 1.224646799147353207E-16, -1.000000000000000000 ) ) ;
#100 = AXIS2_PLACEMENT_3D ( 'NONE', #149, #102, #201 ) ;
#101 = CARTESIAN_POINT ( 'NONE',  ( 1.043952920314096936E-13, -3.661693929450586610E-15, 29.90000000000000213 ) ) ;
#102 = DIRECTION ( 'NONE',  ( 3.491481338843133355E-15, -1.224646799147353207E-16, 1.000000000000000000 ) ) ;
#103 = CALENDAR_DATE ( 2021, 7, 10 ) ;
#104 = APPROVAL_STATUS ( 'not_yet_approved' ) ;
#105 = CARTESIAN_POINT ( 'NONE',  ( 7.447522416960683146E-16, 0.3549999999999983724, 0.2133055197547853443 ) ) ;
#106 = CC_DESIGN_DATE_AND_TIME_ASSIGNMENT ( #135, #22, ( #120 ) ) ;
#107 = APPLICATION_PROTOCOL_DEFINITION ( 'international standard', 'config_control_design', 1994, #6 ) ;
#108 = CIRCLE ( 'NONE', #77, 0.3549999999999994826 ) ;
#109 = APPROVAL_ROLE ( '' ) ;
#110 = ADVANCED_FACE ( 'NONE', ( #173 ), #115, .F. ) ;
#111 = PLANE ( 'NONE',  #98 ) ;
#112 = CARTESIAN_POINT ( 'NONE',  ( 2.144170143130654245E-14, -7.520736466208141713E-16, 6.141147367097494758 ) ) ;
#113 = ORIENTED_EDGE ( 'NONE', *, *, #7, .F. ) ;
#114 = CARTESIAN_POINT ( 'NONE',  ( 0.0000000000000000000, 0.0000000000000000000, 0.0000000000000000000 ) ) ;
#115 = PLANE ( 'NONE',  #61 ) ;
#116 = CC_DESIGN_PERSON_AND_ORGANIZATION_ASSIGNMENT ( #139, #212, ( #153 ) ) ;
#117 = CARTESIAN_POINT ( 'NONE',  ( 7.447522416960681174E-16, -2.612239220081603103E-17, 0.2133055197547852888 ) ) ;
#118 = EDGE_LOOP ( 'NONE', ( #78 ) ) ;
#119 = PERSON_AND_ORGANIZATION_ROLE ( 'creator' ) ;
#120 = PRODUCT_DEFINITION ( 'UNKNOWN', '', #159, #42 ) ;
#121 = PERSON_AND_ORGANIZATION_ROLE ( 'creator' ) ;
#122 =( LENGTH_UNIT ( ) NAMED_UNIT ( * ) SI_UNIT ( .MILLI., .METRE. ) );
#123 =( GEOMETRIC_REPRESENTATION_CONTEXT ( 3 ) GLOBAL_UNCERTAINTY_ASSIGNED_CONTEXT ( ( #169 ) ) GLOBAL_UNIT_ASSIGNED_CONTEXT ( ( #122, #70, #35 ) ) REPRESENTATION_CONTEXT ( 'NONE', 'WORKASPACE' ) );
#124 = ADVANCED_FACE ( 'NONE', ( #170 ), #73, .T. ) ;
#125 = DATE_AND_TIME ( #103, #202 ) ;
#126 = CARTESIAN_POINT ( 'NONE',  ( 1.047444401652940007E-13, 2.999519565323651582E-33, 30.00000000000000000 ) ) ;
#127 = CIRCLE ( 'NONE', #36, 0.3999999999999988565 ) ;
#128 = EDGE_CURVE ( 'NONE', #72, #72, #57, .T. ) ;
#129 = FACE_OUTER_BOUND ( 'NONE', #118, .T. ) ;
#130 = DIRECTION ( 'NONE',  ( -3.491481338843133355E-15, 1.224646799147353207E-16, -1.000000000000000000 ) ) ;
#131 = DIRECTION ( 'NONE',  ( 5.425154772921815929E-31, 1.000000000000000000, 1.527045313359872379E-16 ) ) ;
#132 = LOCAL_TIME ( 15, 47, 36.00000000000000000, #2 ) ;
#133 = VERTEX_POINT ( 'NONE', #207 ) ;
#134 = APPLICATION_PROTOCOL_DEFINITION ( 'international standard', 'config_control_design', 1994, #92 ) ;
#135 = DATE_AND_TIME ( #38, #31 ) ;
#136 = PERSON_AND_ORGANIZATION ( #151, #20 ) ;
#137 = AXIS2_PLACEMENT_3D ( 'NONE', #112, #185, #204 ) ;
#138 = APPROVAL ( #94, 'UNSPECIFIED' ) ;
#139 = PERSON_AND_ORGANIZATION ( #151, #20 ) ;
#140 = CC_DESIGN_PERSON_AND_ORGANIZATION_ASSIGNMENT ( #180, #119, ( #120 ) ) ;
#141 = CC_DESIGN_APPROVAL ( #85, ( #120 ) ) ;
#142 = EDGE_LOOP ( 'NONE', ( #157 ) ) ;
#143 = SHAPE_DEFINITION_REPRESENTATION ( #182, #24 ) ;
#144 = CC_DESIGN_APPROVAL ( #138, ( #159 ) ) ;
#145 = FACE_OUTER_BOUND ( 'NONE', #64, .T. ) ;
#146 = ADVANCED_FACE ( 'NONE', ( #129 ), #111, .F. ) ;
#147 = DIRECTION ( 'NONE',  ( -3.491481338843133355E-15, 1.224646799147353207E-16, -1.000000000000000000 ) ) ;
#148 = DIRECTION ( 'NONE',  ( 0.0000000000000000000, 1.000000000000000000, 0.0000000000000000000 ) ) ;
#149 = CARTESIAN_POINT ( 'NONE',  ( 1.955229549752154679E-14, 2.662073614224782817E-33, 5.599999999999999645 ) ) ;
#150 = VERTEX_POINT ( 'NONE', #69 ) ;
#151 = PERSON ( 'UNSPECIFIED', 'UNSPECIFIED', 'UNSPECIFIED', ('UNSPECIFIED'), ('UNSPECIFIED'), ('UNSPECIFIED') ) ;
#152 = AXIS2_PLACEMENT_3D ( 'NONE', #101, #166, #50 ) ;
#153 = SECURITY_CLASSIFICATION ( '', '', #76 ) ;
#154 = CALENDAR_DATE ( 2021, 7, 10 ) ;
#155 = CALENDAR_DATE ( 2021, 7, 10 ) ;
#156 = PERSON_AND_ORGANIZATION_ROLE ( 'design_owner' ) ;
#157 = ORIENTED_EDGE ( 'NONE', *, *, #128, .T. ) ;
#158 = APPROVAL_ROLE ( '' ) ;
#159 = PRODUCT_DEFINITION_FORMATION_WITH_SPECIFIED_SOURCE ( 'ANY', '', #214, .NOT_KNOWN. ) ;
#160 = APPROVAL_DATE_TIME ( #223, #85 ) ;
#161 = ADVANCED_FACE ( 'NONE', ( #145, #14 ), #95, .T. ) ;
#162 = PERSON_AND_ORGANIZATION ( #151, #20 ) ;
#163 = CALENDAR_DATE ( 2021, 7, 10 ) ;
#164 = EDGE_LOOP ( 'NONE', ( #176 ) ) ;
#165 = DATE_TIME_ROLE ( 'classification_date' ) ;
#166 = DIRECTION ( 'NONE',  ( -3.491481338843133355E-15, 1.224646799147353207E-16, -1.000000000000000000 ) ) ;
#167 = ADVANCED_FACE ( 'NONE', ( #189, #34 ), #86, .T. ) ;
#168 = DIRECTION ( 'NONE',  ( -3.491481338843133355E-15, 1.224646799147353207E-16, -1.000000000000000000 ) ) ;
#169 = UNCERTAINTY_MEASURE_WITH_UNIT (LENGTH_MEASURE( 1.000000000000000082E-05 ), #122, 'distance_accuracy_value', 'NONE');
#170 = FACE_OUTER_BOUND ( 'NONE', #142, .T. ) ;
#171 = CC_DESIGN_SECURITY_CLASSIFICATION ( #153, ( #159 ) ) ;
#172 = EDGE_CURVE ( 'NONE', #58, #58, #90, .T. ) ;
#173 = FACE_OUTER_BOUND ( 'NONE', #175, .T. ) ;
#174 = FACE_OUTER_BOUND ( 'NONE', #63, .T. ) ;
#175 = EDGE_LOOP ( 'NONE', ( #80 ) ) ;
#176 = ORIENTED_EDGE ( 'NONE', *, *, #172, .T. ) ;
#177 = CLOSED_SHELL ( 'NONE', ( #146, #44, #167, #161, #110 ) ) ;
#178 = VERTEX_POINT ( 'NONE', #55 ) ;
#179 = ORIENTED_EDGE ( 'NONE', *, *, #56, .F. ) ;
#180 = PERSON_AND_ORGANIZATION ( #151, #20 ) ;
#181 = PERSON_AND_ORGANIZATION_ROLE ( 'design_supplier' ) ;
#182 = PRODUCT_DEFINITION_SHAPE ( 'NONE', 'NONE',  #120 ) ;
#183 = CLOSED_SHELL ( 'NONE', ( #124, #208, #195 ) ) ;
#184 = DIRECTION ( 'NONE',  ( 0.0000000000000000000, 1.000000000000000000, 0.0000000000000000000 ) ) ;
#185 = DIRECTION ( 'NONE',  ( 3.491481338843133355E-15, -1.224646799147353207E-16, 1.000000000000000000 ) ) ;
#186 = DIRECTION ( 'NONE',  ( 4.275831445896958607E-31, 1.000000000000000000, 1.224646799147353207E-16 ) ) ;
#187 = AXIS2_PLACEMENT_3D ( 'NONE', #117, #66, #216 ) ;
#188 = DIRECTION ( 'NONE',  ( 4.275831445896958607E-31, 1.000000000000000000, 1.224646799147353207E-16 ) ) ;
#189 = FACE_OUTER_BOUND ( 'NONE', #27, .T. ) ;
#190 = CC_DESIGN_PERSON_AND_ORGANIZATION_ASSIGNMENT ( #59, #121, ( #159 ) ) ;
#191 = AXIS2_PLACEMENT_3D ( 'NONE', #84, #99, #184 ) ;
#192 = DIRECTION ( 'NONE',  ( 1.000000000000000000, 0.0000000000000000000, 0.0000000000000000000 ) ) ;
#193 = EDGE_LOOP ( 'NONE', ( #43 ) ) ;
#194 = CARTESIAN_POINT ( 'NONE',  ( 1.043952920314096936E-13, 0.4999999999999952260, 29.90000000000000213 ) ) ;
#195 = ADVANCED_FACE ( 'NONE', ( #16 ), #28, .T. ) ;
#196 = PERSON_AND_ORGANIZATION ( #151, #20 ) ;
#197 = CIRCLE ( 'NONE', #152, 0.4999999999999989453 ) ;
#198 = COORDINATED_UNIVERSAL_TIME_OFFSET ( 1, 0, .AHEAD. ) ;
#199 = APPROVAL_STATUS ( 'not_yet_approved' ) ;
#200 = AXIS2_PLACEMENT_3D ( 'NONE', #220, #81, #131 ) ;
#201 = DIRECTION ( 'NONE',  ( -4.275831445896958607E-31, -1.000000000000000000, -1.224646799147353207E-16 ) ) ;
#202 = LOCAL_TIME ( 15, 47, 36.00000000000000000, #198 ) ;
#203 = CARTESIAN_POINT ( 'NONE',  ( 1.955229549752154679E-14, 2.662073614224782817E-33, 5.599999999999999645 ) ) ;
#204 = DIRECTION ( 'NONE',  ( 0.0000000000000000000, -1.000000000000000000, 0.0000000000000000000 ) ) ;
#205 = CARTESIAN_POINT ( 'NONE',  ( 0.0000000000000000000, 0.0000000000000000000, 0.0000000000000000000 ) ) ;
#206 = LOCAL_TIME ( 15, 47, 36.00000000000000000, #8 ) ;
#207 = CARTESIAN_POINT ( 'NONE',  ( 1.955229549752154679E-14, 0.3549999999999987610, 5.599999999999999645 ) ) ;
#208 = ADVANCED_FACE ( 'NONE', ( #218, #174 ), #68, .T. ) ;
#209 = ORIENTED_EDGE ( 'NONE', *, *, #25, .F. ) ;
#210 = CC_DESIGN_PERSON_AND_ORGANIZATION_ASSIGNMENT ( #136, #156, ( #214 ) ) ;
#211 = DATE_AND_TIME ( #154, #40 ) ;
#212 = PERSON_AND_ORGANIZATION_ROLE ( 'classification_officer' ) ;
#213 = APPROVAL_DATE_TIME ( #79, #60 ) ;
#214 = PRODUCT ( '38078', '38078', '', ( #18 ) ) ;
#215 = CARTESIAN_POINT ( 'NONE',  ( 1.047444401652940007E-13, -3.673940397442059178E-15, 30.00000000000000000 ) ) ;
#216 = DIRECTION ( 'NONE',  ( -5.425154772921815929E-31, -1.000000000000000000, -1.527045313359872379E-16 ) ) ;
#217 = CARTESIAN_POINT ( 'NONE',  ( 1.955229549752154679E-14, -6.858022075225177566E-16, 5.599999999999999645 ) ) ;
#218 = FACE_OUTER_BOUND ( 'NONE', #193, .T. ) ;
#219 = EDGE_LOOP ( 'NONE', ( #209 ) ) ;
#220 = CARTESIAN_POINT ( 'NONE',  ( 7.447522416960681174E-16, -2.612239220081603103E-17, 0.2133055197547852888 ) ) ;
#221 = APPROVAL_DATE_TIME ( #211, #138 ) ;
#222 = COORDINATED_UNIVERSAL_TIME_OFFSET ( 1, 0, .AHEAD. ) ;
#223 = DATE_AND_TIME ( #155, #132 ) ;
ENDSEC;
END-ISO-10303-21;
