ISO-10303-21;
HEADER;
FILE_DESCRIPTION (( 'STEP AP203' ),
    '1' );
FILE_NAME ('38075.step',
    '2021-10-07T13:47:36',
    ( '' ),
    ( '' ),
    'SwSTEP 2.0',
    'SolidWorks 2019',
    '' );
FILE_SCHEMA (( 'CONFIG_CONTROL_DESIGN' ));
ENDSEC;

DATA;
#1 = ORIENTED_EDGE ( 'NONE', *, *, #108, .F. ) ;
#2 = PLANE ( 'NONE',  #40 ) ;
#3 = MANIFOLD_SOLID_BREP ( 'Corps-Déplacer/Copier1[1]', #162 ) ;
#4 = CALENDAR_DATE ( 2021, 7, 10 ) ;
#5 = CONICAL_SURFACE ( 'NONE', #134, 0.3249999999999989009, 1.029744258676649649 ) ;
#6 = APPLICATION_CONTEXT ( 'configuration controlled 3d designs of mechanical parts and assemblies' ) ;
#7 = CARTESIAN_POINT ( 'NONE',  ( 1.047444401652940007E-13, -3.673940397442059178E-15, 30.00000000000000000 ) ) ;
#8 = DIRECTION ( 'NONE',  ( -3.491481338843133355E-15, 1.224646799147353207E-16, -1.000000000000000000 ) ) ;
#9 = VERTEX_POINT ( 'NONE', #44 ) ;
#10 = DATE_AND_TIME ( #191, #143 ) ;
#11 = ORIENTED_EDGE ( 'NONE', *, *, #108, .T. ) ;
#12 = VERTEX_POINT ( 'NONE', #13 ) ;
#13 = CARTESIAN_POINT ( 'NONE',  ( 6.818154325386549116E-16, 0.3249999999999989009, 0.1952797011839586261 ) ) ;
#14 = APPROVAL_PERSON_ORGANIZATION ( #174, #181, #46 ) ;
#15 = EDGE_LOOP ( 'NONE', ( #11 ) ) ;
#16 = DIRECTION ( 'NONE',  ( -3.491481338843133355E-15, 1.224646799147353207E-16, -1.000000000000000000 ) ) ;
#17 = CC_DESIGN_DATE_AND_TIME_ASSIGNMENT ( #68, #168, ( #216 ) ) ;
#18 = DIRECTION ( 'NONE',  ( 3.491481338843133355E-15, -1.224646799147353207E-16, 1.000000000000000000 ) ) ;
#19 = AXIS2_PLACEMENT_3D ( 'NONE', #90, #20, #201 ) ;
#20 = DIRECTION ( 'NONE',  ( -3.491481338843133355E-15, 1.224646799147353207E-16, -1.000000000000000000 ) ) ;
#21 = CARTESIAN_POINT ( 'NONE',  ( 6.818154325386548130E-16, -2.391486609933865012E-17, 0.1952797011839585983 ) ) ;
#22 = PERSON_AND_ORGANIZATION ( #156, #192 ) ;
#23 = CIRCLE ( 'NONE', #142, 0.4999999999999970024 ) ;
#24 = APPROVAL_PERSON_ORGANIZATION ( #187, #180, #137 ) ;
#25 = ADVANCED_FACE ( 'NONE', ( #82, #52 ), #120, .T. ) ;
#26 = EDGE_LOOP ( 'NONE', ( #175 ) ) ;
#27 = VERTEX_POINT ( 'NONE', #32 ) ;
#28 = PERSON_AND_ORGANIZATION ( #156, #192 ) ;
#29 = APPROVAL_STATUS ( 'not_yet_approved' ) ;
#30 = DIRECTION ( 'NONE',  ( -3.491481338843133355E-15, 1.224646799147353207E-16, -1.000000000000000000 ) ) ;
#31 = SHAPE_DEFINITION_REPRESENTATION ( #125, #177 ) ;
#32 = CARTESIAN_POINT ( 'NONE',  ( 1.973772420050789943E-14, 0.4999999999999963363, 5.653108891324561291 ) ) ;
#33 = ADVANCED_FACE ( 'NONE', ( #136 ), #205, .F. ) ;
#34 = DIRECTION ( 'NONE',  ( 3.491481338843133355E-15, -1.224646799147353207E-16, 1.000000000000000000 ) ) ;
#35 = AXIS2_PLACEMENT_3D ( 'NONE', #135, #30, #140 ) ;
#36 =( NAMED_UNIT ( * ) PLANE_ANGLE_UNIT ( ) SI_UNIT ( $, .RADIAN. ) );
#37 = CARTESIAN_POINT ( 'NONE',  ( 1.043952920314096936E-13, -3.661693929450586610E-15, 29.90000000000000213 ) ) ;
#38 = VERTEX_POINT ( 'NONE', #45 ) ;
#39 = FACE_OUTER_BOUND ( 'NONE', #219, .T. ) ;
#40 = AXIS2_PLACEMENT_3D ( 'NONE', #47, #159, #107 ) ;
#41 = DIRECTION ( 'NONE',  ( 0.0000000000000000000, 1.000000000000000000, 0.0000000000000000000 ) ) ;
#42 = COORDINATED_UNIVERSAL_TIME_OFFSET ( 1, 0, .AHEAD. ) ;
#43 = CONICAL_SURFACE ( 'NONE', #62, 0.3999999999999988565, 0.7853981633974689291 ) ;
#44 = CARTESIAN_POINT ( 'NONE',  ( 1.047444401652940007E-13, 0.3999999999999951927, 30.00000000000000000 ) ) ;
#45 = CARTESIAN_POINT ( 'NONE',  ( 1.745740669421566678E-14, 0.3249999999999990119, 5.000000000000000000 ) ) ;
#46 = APPROVAL_ROLE ( '' ) ;
#47 = CARTESIAN_POINT ( 'NONE',  ( 1.745740669421566678E-14, 2.437109646825506639E-33, 5.000000000000000000 ) ) ;
#48 = DIRECTION ( 'NONE',  ( 0.0000000000000000000, 0.0000000000000000000, 1.000000000000000000 ) ) ;
#49 = DATE_TIME_ROLE ( 'classification_date' ) ;
#50 = DIRECTION ( 'NONE',  ( 1.000000000000000000, 0.0000000000000000000, 0.0000000000000000000 ) ) ;
#51 = APPROVAL_DATE_TIME ( #185, #148 ) ;
#52 = FACE_OUTER_BOUND ( 'NONE', #161, .T. ) ;
#53 = VERTEX_POINT ( 'NONE', #202 ) ;
#54 = APPLICATION_PROTOCOL_DEFINITION ( 'international standard', 'config_control_design', 1994, #6 ) ;
#55 = DIRECTION ( 'NONE',  ( 0.0000000000000000000, 1.000000000000000000, 0.0000000000000000000 ) ) ;
#56 = ADVANCED_FACE ( 'NONE', ( #87, #103 ), #178, .T. ) ;
#57 = FACE_OUTER_BOUND ( 'NONE', #188, .T. ) ;
#58 = DIRECTION ( 'NONE',  ( -3.491481338843133355E-15, 1.224646799147353207E-16, -1.000000000000000000 ) ) ;
#59 = EDGE_CURVE ( 'NONE', #27, #27, #23, .T. ) ;
#60 = DATE_AND_TIME ( #93, #131 ) ;
#61 = EDGE_LOOP ( 'NONE', ( #94 ) ) ;
#62 = AXIS2_PLACEMENT_3D ( 'NONE', #7, #58, #55 ) ;
#63 = MECHANICAL_CONTEXT ( 'NONE', #203, 'mechanical' ) ;
#64 = CARTESIAN_POINT ( 'NONE',  ( 0.0000000000000000000, 0.0000000000000000000, 0.0000000000000000000 ) ) ;
#65 = DATE_AND_TIME ( #97, #88 ) ;
#66 = CC_DESIGN_PERSON_AND_ORGANIZATION_ASSIGNMENT ( #145, #166, ( #98 ) ) ;
#67 = ORIENTED_EDGE ( 'NONE', *, *, #59, .T. ) ;
#68 = DATE_AND_TIME ( #111, #71 ) ;
#69 = DIRECTION ( 'NONE',  ( -2.962969145211141918E-31, -1.000000000000000000, -8.340016711426984871E-17 ) ) ;
#70 = ORIENTED_EDGE ( 'NONE', *, *, #141, .T. ) ;
#71 = LOCAL_TIME ( 15, 47, 36.00000000000000000, #189 ) ;
#72 = EDGE_LOOP ( 'NONE', ( #158 ) ) ;
#73 = CLOSED_SHELL ( 'NONE', ( #165, #56, #75 ) ) ;
#74 = SECURITY_CLASSIFICATION ( '', '', #118 ) ;
#75 = ADVANCED_FACE ( 'NONE', ( #207 ), #2, .T. ) ;
#76 = AXIS2_PLACEMENT_3D ( 'NONE', #21, #8, #184 ) ;
#77 = PLANE ( 'NONE',  #210 ) ;
#78 = UNCERTAINTY_MEASURE_WITH_UNIT (LENGTH_MEASURE( 1.000000000000000082E-05 ), #83, 'distance_accuracy_value', 'NONE');
#79 = PERSON_AND_ORGANIZATION_ROLE ( 'creator' ) ;
#80 = CC_DESIGN_PERSON_AND_ORGANIZATION_ASSIGNMENT ( #22, #91, ( #126 ) ) ;
#81 = PERSON_AND_ORGANIZATION ( #156, #192 ) ;
#82 = FACE_OUTER_BOUND ( 'NONE', #171, .T. ) ;
#83 =( LENGTH_UNIT ( ) NAMED_UNIT ( * ) SI_UNIT ( .MILLI., .METRE. ) );
#84 =( GEOMETRIC_REPRESENTATION_CONTEXT ( 3 ) GLOBAL_UNCERTAINTY_ASSIGNED_CONTEXT ( ( #78 ) ) GLOBAL_UNIT_ASSIGNED_CONTEXT ( ( #83, #36, #172 ) ) REPRESENTATION_CONTEXT ( 'NONE', 'WORKASPACE' ) );
#85 = COORDINATED_UNIVERSAL_TIME_OFFSET ( 1, 0, .AHEAD. ) ;
#86 = DIRECTION ( 'NONE',  ( -3.491481338843133355E-15, 1.224646799147353207E-16, -1.000000000000000000 ) ) ;
#87 = FACE_OUTER_BOUND ( 'NONE', #112, .T. ) ;
#88 = LOCAL_TIME ( 15, 47, 36.00000000000000000, #151 ) ;
#89 = DIRECTION ( 'NONE',  ( -3.491481338843133355E-15, 1.224646799147353207E-16, -1.000000000000000000 ) ) ;
#90 = CARTESIAN_POINT ( 'NONE',  ( 1.047444401652940007E-13, -3.673940397442059178E-15, 30.00000000000000000 ) ) ;
#91 = PERSON_AND_ORGANIZATION_ROLE ( 'design_supplier' ) ;
#92 = CC_DESIGN_DATE_AND_TIME_ASSIGNMENT ( #10, #49, ( #74 ) ) ;
#93 = CALENDAR_DATE ( 2021, 7, 10 ) ;
#94 = ORIENTED_EDGE ( 'NONE', *, *, #124, .T. ) ;
#95 = ORIENTED_EDGE ( 'NONE', *, *, #59, .F. ) ;
#96 = ADVANCED_FACE ( 'NONE', ( #182, #147 ), #43, .T. ) ;
#97 = CALENDAR_DATE ( 2021, 7, 10 ) ;
#98 = PRODUCT ( '38075', '38075', '', ( #63 ) ) ;
#99 = DIRECTION ( 'NONE',  ( 0.0000000000000000000, 1.000000000000000000, 0.0000000000000000000 ) ) ;
#100 = APPROVAL_DATE_TIME ( #60, #181 ) ;
#101 = EDGE_LOOP ( 'NONE', ( #139 ) ) ;
#102 = ADVANCED_FACE ( 'NONE', ( #127, #57 ), #208, .T. ) ;
#103 = FACE_OUTER_BOUND ( 'NONE', #153, .T. ) ;
#104 = APPLICATION_PROTOCOL_DEFINITION ( 'international standard', 'config_control_design', 1994, #203 ) ;
#105 = CC_DESIGN_PERSON_AND_ORGANIZATION_ASSIGNMENT ( #113, #221, ( #216 ) ) ;
#106 = AXIS2_PLACEMENT_3D ( 'NONE', #212, #18, #128 ) ;
#107 = DIRECTION ( 'NONE',  ( -4.275831445896958607E-31, -1.000000000000000000, -1.224646799147353207E-16 ) ) ;
#108 = EDGE_CURVE ( 'NONE', #12, #12, #179, .T. ) ;
#109 = VERTEX_POINT ( 'NONE', #114 ) ;
#110 = CC_DESIGN_APPROVAL ( #181, ( #126 ) ) ;
#111 = CALENDAR_DATE ( 2021, 7, 10 ) ;
#112 = EDGE_LOOP ( 'NONE', ( #1 ) ) ;
#113 = PERSON_AND_ORGANIZATION ( #156, #192 ) ;
#114 = CARTESIAN_POINT ( 'NONE',  ( 1.043952920314096936E-13, 0.4999999999999952260, 29.90000000000000213 ) ) ;
#115 = CARTESIAN_POINT ( 'NONE',  ( 1.973772420050789943E-14, -6.923061708992066717E-16, 5.653108891324561291 ) ) ;
#116 = APPROVAL_DATE_TIME ( #65, #180 ) ;
#117 = ORIENTED_EDGE ( 'NONE', *, *, #124, .F. ) ;
#118 = SECURITY_CLASSIFICATION_LEVEL ( 'unclassified' ) ;
#119 = DIRECTION ( 'NONE',  ( 0.0000000000000000000, 1.000000000000000000, 0.0000000000000000000 ) ) ;
#120 = CYLINDRICAL_SURFACE ( 'NONE', #197, 0.4999999999999979461 ) ;
#121 = CC_DESIGN_PERSON_AND_ORGANIZATION_ASSIGNMENT ( #28, #79, ( #126 ) ) ;
#122 = CIRCLE ( 'NONE', #19, 0.3999999999999988565 ) ;
#123 = AXIS2_PLACEMENT_3D ( 'NONE', #194, #89, #164 ) ;
#124 = EDGE_CURVE ( 'NONE', #9, #9, #122, .T. ) ;
#125 = PRODUCT_DEFINITION_SHAPE ( 'NONE', 'NONE',  #216 ) ;
#126 = PRODUCT_DEFINITION_FORMATION_WITH_SPECIFIED_SOURCE ( 'ANY', '', #98, .NOT_KNOWN. ) ;
#127 = FACE_BOUND ( 'NONE', #223, .T. ) ;
#128 = DIRECTION ( 'NONE',  ( 0.0000000000000000000, -1.000000000000000000, 0.0000000000000000000 ) ) ;
#129 = DIRECTION ( 'NONE',  ( -3.491481338843133355E-15, 1.224646799147353207E-16, -1.000000000000000000 ) ) ;
#130 = CIRCLE ( 'NONE', #169, 0.3249999999999996225 ) ;
#131 = LOCAL_TIME ( 15, 47, 36.00000000000000000, #85 ) ;
#132 = ADVANCED_FACE ( 'NONE', ( #39 ), #77, .F. ) ;
#133 = AXIS2_PLACEMENT_3D ( 'NONE', #152, #34, #138 ) ;
#134 = AXIS2_PLACEMENT_3D ( 'NONE', #157, #222, #69 ) ;
#135 = CARTESIAN_POINT ( 'NONE',  ( 0.0000000000000000000, 0.0000000000000000000, 0.0000000000000000000 ) ) ;
#136 = FACE_OUTER_BOUND ( 'NONE', #101, .T. ) ;
#137 = APPROVAL_ROLE ( '' ) ;
#138 = DIRECTION ( 'NONE',  ( -4.275831445896958607E-31, -1.000000000000000000, -1.224646799147353207E-16 ) ) ;
#139 = ORIENTED_EDGE ( 'NONE', *, *, #218, .T. ) ;
#140 = DIRECTION ( 'NONE',  ( 4.275831445896958607E-31, 1.000000000000000000, 1.224646799147353207E-16 ) ) ;
#141 = EDGE_CURVE ( 'NONE', #109, #109, #199, .T. ) ;
#142 = AXIS2_PLACEMENT_3D ( 'NONE', #115, #16, #99 ) ;
#143 = LOCAL_TIME ( 15, 47, 36.00000000000000000, #42 ) ;
#144 = CARTESIAN_POINT ( 'NONE',  ( 1.745740669421566678E-14, -6.123233995736766282E-16, 5.000000000000000000 ) ) ;
#145 = PERSON_AND_ORGANIZATION ( #156, #192 ) ;
#146 = CC_DESIGN_PERSON_AND_ORGANIZATION_ASSIGNMENT ( #81, #206, ( #74 ) ) ;
#147 = FACE_BOUND ( 'NONE', #61, .T. ) ;
#148 = APPROVAL ( #176, 'UNSPECIFIED' ) ;
#149 = CARTESIAN_POINT ( 'NONE',  ( 1.047444401652940007E-13, 2.999519565323651582E-33, 30.00000000000000000 ) ) ;
#150 = DESIGN_CONTEXT ( 'detailed design', #6, 'design' ) ;
#151 = COORDINATED_UNIVERSAL_TIME_OFFSET ( 1, 0, .AHEAD. ) ;
#152 = CARTESIAN_POINT ( 'NONE',  ( 1.745740669421566678E-14, 2.437109646825506639E-33, 5.000000000000000000 ) ) ;
#153 = EDGE_LOOP ( 'NONE', ( #190 ) ) ;
#154 = MANIFOLD_SOLID_BREP ( 'Corps-Déplacer/Copier1[2]', #73 ) ;
#155 = ORIENTED_EDGE ( 'NONE', *, *, #218, .F. ) ;
#156 = PERSON ( 'UNSPECIFIED', 'UNSPECIFIED', 'UNSPECIFIED', ('UNSPECIFIED'), ('UNSPECIFIED'), ('UNSPECIFIED') ) ;
#157 = CARTESIAN_POINT ( 'NONE',  ( 6.818154325386548130E-16, -2.391486609933865012E-17, 0.1952797011839585983 ) ) ;
#158 = ORIENTED_EDGE ( 'NONE', *, *, #141, .F. ) ;
#159 = DIRECTION ( 'NONE',  ( 3.491481338843133355E-15, -1.224646799147353207E-16, 1.000000000000000000 ) ) ;
#160 = APPROVAL_ROLE ( '' ) ;
#161 = EDGE_LOOP ( 'NONE', ( #70 ) ) ;
#162 = CLOSED_SHELL ( 'NONE', ( #33, #102, #25, #96, #132 ) ) ;
#163 = LOCAL_TIME ( 15, 47, 36.00000000000000000, #217 ) ;
#164 = DIRECTION ( 'NONE',  ( 0.0000000000000000000, 1.000000000000000000, 0.0000000000000000000 ) ) ;
#165 = ADVANCED_FACE ( 'NONE', ( #167 ), #5, .T. ) ;
#166 = PERSON_AND_ORGANIZATION_ROLE ( 'design_owner' ) ;
#167 = FACE_OUTER_BOUND ( 'NONE', #15, .T. ) ;
#168 = DATE_TIME_ROLE ( 'creation_date' ) ;
#169 = AXIS2_PLACEMENT_3D ( 'NONE', #144, #209, #119 ) ;
#170 = APPROVAL_STATUS ( 'not_yet_approved' ) ;
#171 = EDGE_LOOP ( 'NONE', ( #95 ) ) ;
#172 =( NAMED_UNIT ( * ) SI_UNIT ( $, .STERADIAN. ) SOLID_ANGLE_UNIT ( ) );
#173 = AXIS2_PLACEMENT_3D ( 'NONE', #37, #204, #41 ) ;
#174 = PERSON_AND_ORGANIZATION ( #156, #192 ) ;
#175 = ORIENTED_EDGE ( 'NONE', *, *, #211, .F. ) ;
#176 = APPROVAL_STATUS ( 'not_yet_approved' ) ;
#177 = ADVANCED_BREP_SHAPE_REPRESENTATION ( '38075', ( #3, #154, #213 ), #84 ) ;
#178 = CYLINDRICAL_SURFACE ( 'NONE', #35, 0.3249999999999992339 ) ;
#179 = CIRCLE ( 'NONE', #76, 0.3249999999999989009 ) ;
#180 = APPROVAL ( #29, 'UNSPECIFIED' ) ;
#181 = APPROVAL ( #170, 'UNSPECIFIED' ) ;
#182 = FACE_OUTER_BOUND ( 'NONE', #72, .T. ) ;
#183 = CC_DESIGN_APPROVAL ( #148, ( #216 ) ) ;
#184 = DIRECTION ( 'NONE',  ( 2.962969145211141918E-31, 1.000000000000000000, 8.340016711426984871E-17 ) ) ;
#185 = DATE_AND_TIME ( #4, #163 ) ;
#186 = APPROVAL_PERSON_ORGANIZATION ( #193, #148, #160 ) ;
#187 = PERSON_AND_ORGANIZATION ( #156, #192 ) ;
#188 = EDGE_LOOP ( 'NONE', ( #67 ) ) ;
#189 = COORDINATED_UNIVERSAL_TIME_OFFSET ( 1, 0, .AHEAD. ) ;
#190 = ORIENTED_EDGE ( 'NONE', *, *, #211, .T. ) ;
#191 = CALENDAR_DATE ( 2021, 7, 10 ) ;
#192 = ORGANIZATION ( 'UNSPECIFIED', 'UNSPECIFIED', '' ) ;
#193 = PERSON_AND_ORGANIZATION ( #156, #192 ) ;
#194 = CARTESIAN_POINT ( 'NONE',  ( 1.745740669421566678E-14, -6.123233995736766282E-16, 5.000000000000000000 ) ) ;
#195 = DIRECTION ( 'NONE',  ( 4.275831445896958607E-31, 1.000000000000000000, 1.224646799147352961E-16 ) ) ;
#196 = PRODUCT_RELATED_PRODUCT_CATEGORY ( 'detail', '', ( #98 ) ) ;
#197 = AXIS2_PLACEMENT_3D ( 'NONE', #64, #86, #195 ) ;
#198 = CC_DESIGN_APPROVAL ( #180, ( #74 ) ) ;
#199 = CIRCLE ( 'NONE', #173, 0.4999999999999989453 ) ;
#200 = CC_DESIGN_SECURITY_CLASSIFICATION ( #74, ( #126 ) ) ;
#201 = DIRECTION ( 'NONE',  ( 0.0000000000000000000, 1.000000000000000000, 0.0000000000000000000 ) ) ;
#202 = CARTESIAN_POINT ( 'NONE',  ( 1.745740669421566678E-14, 0.3249999999999990119, 5.000000000000000000 ) ) ;
#203 = APPLICATION_CONTEXT ( 'configuration controlled 3d designs of mechanical parts and assemblies' ) ;
#204 = DIRECTION ( 'NONE',  ( -3.491481338843133355E-15, 1.224646799147353207E-16, -1.000000000000000000 ) ) ;
#205 = PLANE ( 'NONE',  #133 ) ;
#206 = PERSON_AND_ORGANIZATION_ROLE ( 'classification_officer' ) ;
#207 = FACE_OUTER_BOUND ( 'NONE', #26, .T. ) ;
#208 = CONICAL_SURFACE ( 'NONE', #106, 0.4999999999999970024, 0.2617993877991426910 ) ;
#209 = DIRECTION ( 'NONE',  ( -3.491481338843133355E-15, 1.224646799147353207E-16, -1.000000000000000000 ) ) ;
#210 = AXIS2_PLACEMENT_3D ( 'NONE', #149, #129, #214 ) ;
#211 = EDGE_CURVE ( 'NONE', #53, #53, #130, .T. ) ;
#212 = CARTESIAN_POINT ( 'NONE',  ( 1.973772420050789943E-14, -6.923061708992066717E-16, 5.653108891324561291 ) ) ;
#213 = AXIS2_PLACEMENT_3D ( 'NONE', #220, #48, #50 ) ;
#214 = DIRECTION ( 'NONE',  ( 4.275831445896958607E-31, 1.000000000000000000, 1.224646799147353207E-16 ) ) ;
#215 = CIRCLE ( 'NONE', #123, 0.3249999999999996225 ) ;
#216 = PRODUCT_DEFINITION ( 'UNKNOWN', '', #126, #150 ) ;
#217 = COORDINATED_UNIVERSAL_TIME_OFFSET ( 1, 0, .AHEAD. ) ;
#218 = EDGE_CURVE ( 'NONE', #38, #38, #215, .T. ) ;
#219 = EDGE_LOOP ( 'NONE', ( #117 ) ) ;
#220 = CARTESIAN_POINT ( 'NONE',  ( 0.0000000000000000000, 0.0000000000000000000, 0.0000000000000000000 ) ) ;
#221 = PERSON_AND_ORGANIZATION_ROLE ( 'creator' ) ;
#222 = DIRECTION ( 'NONE',  ( 3.491481338843133355E-15, -1.224646799147353207E-16, 1.000000000000000000 ) ) ;
#223 = EDGE_LOOP ( 'NONE', ( #155 ) ) ;
ENDSEC;
END-ISO-10303-21;
