ISO-10303-21;
HEADER;
FILE_DESCRIPTION (( 'STEP AP203' ),
    '1' );
FILE_NAME ('38073.step',
    '2021-10-07T13:47:35',
    ( '' ),
    ( '' ),
    'SwSTEP 2.0',
    'SolidWorks 2019',
    '' );
FILE_SCHEMA (( 'CONFIG_CONTROL_DESIGN' ));
ENDSEC;

DATA;
#1 = FACE_OUTER_BOUND ( 'NONE', #207, .T. ) ;
#2 = DIRECTION ( 'NONE',  ( 0.0000000000000000000, 1.000000000000000000, 0.0000000000000000000 ) ) ;
#3 = CARTESIAN_POINT ( 'NONE',  ( 6.713259643457523327E-16, -2.354694508242574354E-17, 0.1922753980888207426 ) ) ;
#4 = ORIENTED_EDGE ( 'NONE', *, *, #85, .T. ) ;
#5 = DIRECTION ( 'NONE',  ( -3.009265538105066530E-31, -1.000000000000000000, -8.470329472543032973E-17 ) ) ;
#6 = AXIS2_PLACEMENT_3D ( 'NONE', #22, #41, #81 ) ;
#7 = MANIFOLD_SOLID_BREP ( 'Corps-Déplacer/Copier1[2]', #185 ) ;
#8 = PERSON_AND_ORGANIZATION ( #114, #99 ) ;
#9 = DESIGN_CONTEXT ( 'detailed design', #100, 'design' ) ;
#10 = PERSON_AND_ORGANIZATION_ROLE ( 'classification_officer' ) ;
#11 = EDGE_CURVE ( 'NONE', #219, #219, #120, .T. ) ;
#12 = CYLINDRICAL_SURFACE ( 'NONE', #209, 0.3199999999999992295 ) ;
#13 =( NAMED_UNIT ( * ) SI_UNIT ( $, .STERADIAN. ) SOLID_ANGLE_UNIT ( ) );
#14 = CIRCLE ( 'NONE', #49, 0.3199999999999988964 ) ;
#15 = APPLICATION_PROTOCOL_DEFINITION ( 'international standard', 'config_control_design', 1994, #100 ) ;
#16 = CARTESIAN_POINT ( 'NONE',  ( 0.0000000000000000000, 0.0000000000000000000, 0.0000000000000000000 ) ) ;
#17 = APPROVAL_STATUS ( 'not_yet_approved' ) ;
#18 = FACE_BOUND ( 'NONE', #190, .T. ) ;
#19 = CONICAL_SURFACE ( 'NONE', #32, 0.3199999999999988964, 1.029744258676649649 ) ;
#20 = ADVANCED_FACE ( 'NONE', ( #165 ), #94, .F. ) ;
#21 = DIRECTION ( 'NONE',  ( 0.0000000000000000000, 1.000000000000000000, 0.0000000000000000000 ) ) ;
#22 = CARTESIAN_POINT ( 'NONE',  ( 1.980287612925911086E-14, -6.945913929370790911E-16, 5.671769145362406839 ) ) ;
#23 = ORIENTED_EDGE ( 'NONE', *, *, #11, .F. ) ;
#24 = CONICAL_SURFACE ( 'NONE', #6, 0.4999999999999970024, 0.2617993877991424134 ) ;
#25 = DATE_AND_TIME ( #133, #218 ) ;
#26 = CIRCLE ( 'NONE', #74, 0.3199999999999996181 ) ;
#27 = PERSON_AND_ORGANIZATION ( #114, #99 ) ;
#28 = APPROVAL_STATUS ( 'not_yet_approved' ) ;
#29 = AXIS2_PLACEMENT_3D ( 'NONE', #66, #205, #138 ) ;
#30 = DIRECTION ( 'NONE',  ( 1.000000000000000000, 0.0000000000000000000, 0.0000000000000000000 ) ) ;
#31 = DIRECTION ( 'NONE',  ( 3.009265538105066530E-31, 1.000000000000000000, 8.470329472543032973E-17 ) ) ;
#32 = AXIS2_PLACEMENT_3D ( 'NONE', #125, #110, #5 ) ;
#33 = APPROVAL ( #62, 'UNSPECIFIED' ) ;
#34 = CARTESIAN_POINT ( 'NONE',  ( 1.745740669421566678E-14, 2.399615652258960267E-33, 5.000000000000000000 ) ) ;
#35 = EDGE_LOOP ( 'NONE', ( #65 ) ) ;
#36 = CALENDAR_DATE ( 2021, 7, 10 ) ;
#37 = CARTESIAN_POINT ( 'NONE',  ( 0.0000000000000000000, 0.0000000000000000000, 0.0000000000000000000 ) ) ;
#38 = CARTESIAN_POINT ( 'NONE',  ( 1.980287612925911086E-14, -6.945913929370790911E-16, 5.671769145362406839 ) ) ;
#39 = DIRECTION ( 'NONE',  ( -3.491481338843133355E-15, 1.224646799147353207E-16, -1.000000000000000000 ) ) ;
#40 = ORIENTED_EDGE ( 'NONE', *, *, #85, .F. ) ;
#41 = DIRECTION ( 'NONE',  ( 3.491481338843133355E-15, -1.224646799147353207E-16, 1.000000000000000000 ) ) ;
#42 = ADVANCED_FACE ( 'NONE', ( #97, #18 ), #116, .T. ) ;
#43 = LOCAL_TIME ( 15, 47, 35.00000000000000000, #64 ) ;
#44 = CALENDAR_DATE ( 2021, 7, 10 ) ;
#45 = PRODUCT_RELATED_PRODUCT_CATEGORY ( 'detail', '', ( #143 ) ) ;
#46 = DATE_TIME_ROLE ( 'classification_date' ) ;
#47 = APPROVAL_PERSON_ORGANIZATION ( #50, #33, #78 ) ;
#48 = APPROVAL_ROLE ( '' ) ;
#49 = AXIS2_PLACEMENT_3D ( 'NONE', #3, #164, #31 ) ;
#50 = PERSON_AND_ORGANIZATION ( #114, #99 ) ;
#51 = ADVANCED_FACE ( 'NONE', ( #56 ), #19, .T. ) ;
#52 = DATE_TIME_ROLE ( 'creation_date' ) ;
#53 = DIRECTION ( 'NONE',  ( -4.275831445896958607E-31, -1.000000000000000000, -1.224646799147353207E-16 ) ) ;
#54 = CARTESIAN_POINT ( 'NONE',  ( 1.745740669421566678E-14, 0.3199999999999990075, 5.000000000000000000 ) ) ;
#55 = CARTESIAN_POINT ( 'NONE',  ( 1.043952920314096936E-13, -3.661693929450586610E-15, 29.90000000000000213 ) ) ;
#56 = FACE_OUTER_BOUND ( 'NONE', #216, .T. ) ;
#57 = AXIS2_PLACEMENT_3D ( 'NONE', #34, #119, #53 ) ;
#58 = DIRECTION ( 'NONE',  ( -3.491481338843133355E-15, 1.224646799147353207E-16, -1.000000000000000000 ) ) ;
#59 = PRODUCT_DEFINITION ( 'UNKNOWN', '', #88, #9 ) ;
#60 = DIRECTION ( 'NONE',  ( -3.491481338843133355E-15, 1.224646799147353207E-16, -1.000000000000000000 ) ) ;
#61 = SECURITY_CLASSIFICATION_LEVEL ( 'unclassified' ) ;
#62 = APPROVAL_STATUS ( 'not_yet_approved' ) ;
#63 = APPROVAL_DATE_TIME ( #25, #168 ) ;
#64 = COORDINATED_UNIVERSAL_TIME_OFFSET ( 1, 0, .AHEAD. ) ;
#65 = ORIENTED_EDGE ( 'NONE', *, *, #115, .F. ) ;
#66 = CARTESIAN_POINT ( 'NONE',  ( 1.745740669421566678E-14, 2.399615652258960267E-33, 5.000000000000000000 ) ) ;
#67 = AXIS2_PLACEMENT_3D ( 'NONE', #37, #183, #30 ) ;
#68 = EDGE_LOOP ( 'NONE', ( #128 ) ) ;
#69 = EDGE_CURVE ( 'NONE', #70, #70, #167, .T. ) ;
#70 = VERTEX_POINT ( 'NONE', #155 ) ;
#71 = ADVANCED_BREP_SHAPE_REPRESENTATION ( '38073', ( #153, #7, #67 ), #135 ) ;
#72 = PERSON_AND_ORGANIZATION ( #114, #99 ) ;
#73 =( NAMED_UNIT ( * ) PLANE_ANGLE_UNIT ( ) SI_UNIT ( $, .RADIAN. ) );
#74 = AXIS2_PLACEMENT_3D ( 'NONE', #112, #95, #212 ) ;
#75 = FACE_OUTER_BOUND ( 'NONE', #134, .T. ) ;
#76 = APPROVAL_ROLE ( '' ) ;
#77 = ORIENTED_EDGE ( 'NONE', *, *, #69, .F. ) ;
#78 = APPROVAL_ROLE ( '' ) ;
#79 = CARTESIAN_POINT ( 'NONE',  ( 1.047444401652940007E-13, 2.999519565323651582E-33, 30.00000000000000000 ) ) ;
#80 = CC_DESIGN_APPROVAL ( #168, ( #88 ) ) ;
#81 = DIRECTION ( 'NONE',  ( 0.0000000000000000000, -1.000000000000000000, 0.0000000000000000000 ) ) ;
#82 = PERSON_AND_ORGANIZATION ( #114, #99 ) ;
#83 = COORDINATED_UNIVERSAL_TIME_OFFSET ( 1, 0, .AHEAD. ) ;
#84 = AXIS2_PLACEMENT_3D ( 'NONE', #178, #111, #179 ) ;
#85 = EDGE_CURVE ( 'NONE', #160, #160, #145, .T. ) ;
#86 = FACE_OUTER_BOUND ( 'NONE', #192, .T. ) ;
#87 = ADVANCED_FACE ( 'NONE', ( #194, #180 ), #24, .T. ) ;
#88 = PRODUCT_DEFINITION_FORMATION_WITH_SPECIFIED_SOURCE ( 'ANY', '', #143, .NOT_KNOWN. ) ;
#89 = EDGE_LOOP ( 'NONE', ( #23 ) ) ;
#90 = DIRECTION ( 'NONE',  ( 4.275831445896958607E-31, 1.000000000000000000, 1.224646799147352961E-16 ) ) ;
#91 = CC_DESIGN_DATE_AND_TIME_ASSIGNMENT ( #159, #52, ( #59 ) ) ;
#92 = CARTESIAN_POINT ( 'NONE',  ( 1.043952920314096936E-13, 0.4999999999999952260, 29.90000000000000213 ) ) ;
#93 = CARTESIAN_POINT ( 'NONE',  ( 1.047444401652940007E-13, -3.673940397442059178E-15, 30.00000000000000000 ) ) ;
#94 = PLANE ( 'NONE',  #102 ) ;
#95 = DIRECTION ( 'NONE',  ( -3.491481338843133355E-15, 1.224646799147353207E-16, -1.000000000000000000 ) ) ;
#96 = EDGE_CURVE ( 'NONE', #141, #141, #26, .T. ) ;
#97 = FACE_OUTER_BOUND ( 'NONE', #89, .T. ) ;
#98 = CLOSED_SHELL ( 'NONE', ( #144, #87, #203, #42, #20 ) ) ;
#99 = ORGANIZATION ( 'UNSPECIFIED', 'UNSPECIFIED', '' ) ;
#100 = APPLICATION_CONTEXT ( 'configuration controlled 3d designs of mechanical parts and assemblies' ) ;
#101 = SHAPE_DEFINITION_REPRESENTATION ( #105, #71 ) ;
#102 = AXIS2_PLACEMENT_3D ( 'NONE', #79, #39, #146 ) ;
#103 = DIRECTION ( 'NONE',  ( -3.491481338843133355E-15, 1.224646799147353207E-16, -1.000000000000000000 ) ) ;
#104 = CC_DESIGN_PERSON_AND_ORGANIZATION_ASSIGNMENT ( #72, #210, ( #59 ) ) ;
#105 = PRODUCT_DEFINITION_SHAPE ( 'NONE', 'NONE',  #59 ) ;
#106 = VERTEX_POINT ( 'NONE', #139 ) ;
#107 = DIRECTION ( 'NONE',  ( -3.491481338843133355E-15, 1.224646799147353207E-16, -1.000000000000000000 ) ) ;
#108 = APPLICATION_PROTOCOL_DEFINITION ( 'international standard', 'config_control_design', 1994, #118 ) ;
#109 = DIRECTION ( 'NONE',  ( -3.491481338843133355E-15, 1.224646799147353207E-16, -1.000000000000000000 ) ) ;
#110 = DIRECTION ( 'NONE',  ( 3.491481338843133355E-15, -1.224646799147353207E-16, 1.000000000000000000 ) ) ;
#111 = DIRECTION ( 'NONE',  ( -3.491481338843133355E-15, 1.224646799147353207E-16, -1.000000000000000000 ) ) ;
#112 = CARTESIAN_POINT ( 'NONE',  ( 1.745740669421566678E-14, -6.123233995736766282E-16, 5.000000000000000000 ) ) ;
#113 = CC_DESIGN_PERSON_AND_ORGANIZATION_ASSIGNMENT ( #82, #198, ( #88 ) ) ;
#114 = PERSON ( 'UNSPECIFIED', 'UNSPECIFIED', 'UNSPECIFIED', ('UNSPECIFIED'), ('UNSPECIFIED'), ('UNSPECIFIED') ) ;
#115 = EDGE_CURVE ( 'NONE', #158, #158, #151, .T. ) ;
#116 = CONICAL_SURFACE ( 'NONE', #122, 0.3999999999999988565, 0.7853981633974689291 ) ;
#117 =( LENGTH_UNIT ( ) NAMED_UNIT ( * ) SI_UNIT ( .MILLI., .METRE. ) );
#118 = APPLICATION_CONTEXT ( 'configuration controlled 3d designs of mechanical parts and assemblies' ) ;
#119 = DIRECTION ( 'NONE',  ( 3.491481338843133355E-15, -1.224646799147353207E-16, 1.000000000000000000 ) ) ;
#120 = CIRCLE ( 'NONE', #208, 0.4999999999999989453 ) ;
#121 = PLANE ( 'NONE',  #29 ) ;
#122 = AXIS2_PLACEMENT_3D ( 'NONE', #124, #109, #215 ) ;
#123 = APPROVAL_DATE_TIME ( #223, #33 ) ;
#124 = CARTESIAN_POINT ( 'NONE',  ( 1.047444401652940007E-13, -3.673940397442059178E-15, 30.00000000000000000 ) ) ;
#125 = CARTESIAN_POINT ( 'NONE',  ( 6.713259643457523327E-16, -2.354694508242574354E-17, 0.1922753980888207426 ) ) ;
#126 = CC_DESIGN_PERSON_AND_ORGANIZATION_ASSIGNMENT ( #8, #131, ( #88 ) ) ;
#127 = LOCAL_TIME ( 15, 47, 35.00000000000000000, #157 ) ;
#128 = ORIENTED_EDGE ( 'NONE', *, *, #140, .F. ) ;
#129 = DIRECTION ( 'NONE',  ( 0.0000000000000000000, 1.000000000000000000, 0.0000000000000000000 ) ) ;
#130 = SECURITY_CLASSIFICATION ( '', '', #61 ) ;
#131 = PERSON_AND_ORGANIZATION_ROLE ( 'creator' ) ;
#132 = DATE_AND_TIME ( #197, #161 ) ;
#133 = CALENDAR_DATE ( 2021, 7, 10 ) ;
#134 = EDGE_LOOP ( 'NONE', ( #166 ) ) ;
#135 =( GEOMETRIC_REPRESENTATION_CONTEXT ( 3 ) GLOBAL_UNCERTAINTY_ASSIGNED_CONTEXT ( ( #200 ) ) GLOBAL_UNIT_ASSIGNED_CONTEXT ( ( #117, #73, #13 ) ) REPRESENTATION_CONTEXT ( 'NONE', 'WORKASPACE' ) );
#136 = CARTESIAN_POINT ( 'NONE',  ( 1.047444401652940007E-13, 0.3999999999999951927, 30.00000000000000000 ) ) ;
#137 = EDGE_LOOP ( 'NONE', ( #156 ) ) ;
#138 = DIRECTION ( 'NONE',  ( -4.275831445896958607E-31, -1.000000000000000000, -1.224646799147353207E-16 ) ) ;
#139 = CARTESIAN_POINT ( 'NONE',  ( 6.713259643457524313E-16, 0.3199999999999988964, 0.1922753980888207703 ) ) ;
#140 = EDGE_CURVE ( 'NONE', #106, #106, #14, .T. ) ;
#141 = VERTEX_POINT ( 'NONE', #54 ) ;
#142 = ORIENTED_EDGE ( 'NONE', *, *, #115, .T. ) ;
#143 = PRODUCT ( '38073', '38073', '', ( #175 ) ) ;
#144 = ADVANCED_FACE ( 'NONE', ( #1 ), #121, .F. ) ;
#145 = CIRCLE ( 'NONE', #186, 0.4999999999999970024 ) ;
#146 = DIRECTION ( 'NONE',  ( 4.275831445896958607E-31, 1.000000000000000000, 1.224646799147353207E-16 ) ) ;
#147 = CALENDAR_DATE ( 2021, 7, 10 ) ;
#148 = EDGE_LOOP ( 'NONE', ( #40 ) ) ;
#149 = DATE_AND_TIME ( #44, #43 ) ;
#150 = ADVANCED_FACE ( 'NONE', ( #86 ), #173, .T. ) ;
#151 = CIRCLE ( 'NONE', #201, 0.3999999999999988565 ) ;
#152 = CYLINDRICAL_SURFACE ( 'NONE', #177, 0.4999999999999979461 ) ;
#153 = MANIFOLD_SOLID_BREP ( 'Corps-Déplacer/Copier1[1]', #98 ) ;
#154 = CC_DESIGN_PERSON_AND_ORGANIZATION_ASSIGNMENT ( #204, #220, ( #143 ) ) ;
#155 = CARTESIAN_POINT ( 'NONE',  ( 1.745740669421566678E-14, 0.3199999999999990075, 5.000000000000000000 ) ) ;
#156 = ORIENTED_EDGE ( 'NONE', *, *, #69, .T. ) ;
#157 = COORDINATED_UNIVERSAL_TIME_OFFSET ( 1, 0, .AHEAD. ) ;
#158 = VERTEX_POINT ( 'NONE', #136 ) ;
#159 = DATE_AND_TIME ( #36, #181 ) ;
#160 = VERTEX_POINT ( 'NONE', #213 ) ;
#161 = LOCAL_TIME ( 15, 47, 35.00000000000000000, #83 ) ;
#162 = ADVANCED_FACE ( 'NONE', ( #187, #174 ), #12, .T. ) ;
#163 = DIRECTION ( 'NONE',  ( -3.491481338843133355E-15, 1.224646799147353207E-16, -1.000000000000000000 ) ) ;
#164 = DIRECTION ( 'NONE',  ( -3.491481338843133355E-15, 1.224646799147353207E-16, -1.000000000000000000 ) ) ;
#165 = FACE_OUTER_BOUND ( 'NONE', #35, .T. ) ;
#166 = ORIENTED_EDGE ( 'NONE', *, *, #11, .T. ) ;
#167 = CIRCLE ( 'NONE', #84, 0.3199999999999996181 ) ;
#168 = APPROVAL ( #17, 'UNSPECIFIED' ) ;
#169 = PERSON_AND_ORGANIZATION ( #114, #99 ) ;
#170 = CC_DESIGN_APPROVAL ( #193, ( #130 ) ) ;
#171 = ORIENTED_EDGE ( 'NONE', *, *, #140, .T. ) ;
#172 = APPROVAL_PERSON_ORGANIZATION ( #211, #168, #76 ) ;
#173 = PLANE ( 'NONE',  #57 ) ;
#174 = FACE_OUTER_BOUND ( 'NONE', #137, .T. ) ;
#175 = MECHANICAL_CONTEXT ( 'NONE', #118, 'mechanical' ) ;
#176 = EDGE_LOOP ( 'NONE', ( #214 ) ) ;
#177 = AXIS2_PLACEMENT_3D ( 'NONE', #16, #103, #90 ) ;
#178 = CARTESIAN_POINT ( 'NONE',  ( 1.745740669421566678E-14, -6.123233995736766282E-16, 5.000000000000000000 ) ) ;
#179 = DIRECTION ( 'NONE',  ( 0.0000000000000000000, 1.000000000000000000, 0.0000000000000000000 ) ) ;
#180 = FACE_OUTER_BOUND ( 'NONE', #222, .T. ) ;
#181 = LOCAL_TIME ( 15, 47, 35.00000000000000000, #189 ) ;
#182 = APPROVAL_DATE_TIME ( #149, #193 ) ;
#183 = DIRECTION ( 'NONE',  ( 0.0000000000000000000, 0.0000000000000000000, 1.000000000000000000 ) ) ;
#184 = FACE_OUTER_BOUND ( 'NONE', #148, .T. ) ;
#185 = CLOSED_SHELL ( 'NONE', ( #51, #162, #150 ) ) ;
#186 = AXIS2_PLACEMENT_3D ( 'NONE', #38, #58, #129 ) ;
#187 = FACE_OUTER_BOUND ( 'NONE', #68, .T. ) ;
#188 = CC_DESIGN_PERSON_AND_ORGANIZATION_ASSIGNMENT ( #27, #10, ( #130 ) ) ;
#189 = COORDINATED_UNIVERSAL_TIME_OFFSET ( 1, 0, .AHEAD. ) ;
#190 = EDGE_LOOP ( 'NONE', ( #142 ) ) ;
#191 = ORIENTED_EDGE ( 'NONE', *, *, #96, .T. ) ;
#192 = EDGE_LOOP ( 'NONE', ( #77 ) ) ;
#193 = APPROVAL ( #28, 'UNSPECIFIED' ) ;
#194 = FACE_BOUND ( 'NONE', #176, .T. ) ;
#195 = CC_DESIGN_SECURITY_CLASSIFICATION ( #130, ( #88 ) ) ;
#196 = CC_DESIGN_DATE_AND_TIME_ASSIGNMENT ( #132, #46, ( #130 ) ) ;
#197 = CALENDAR_DATE ( 2021, 7, 10 ) ;
#198 = PERSON_AND_ORGANIZATION_ROLE ( 'design_supplier' ) ;
#199 = APPROVAL_PERSON_ORGANIZATION ( #169, #193, #48 ) ;
#200 = UNCERTAINTY_MEASURE_WITH_UNIT (LENGTH_MEASURE( 1.000000000000000082E-05 ), #117, 'distance_accuracy_value', 'NONE');
#201 = AXIS2_PLACEMENT_3D ( 'NONE', #93, #163, #2 ) ;
#202 = CC_DESIGN_APPROVAL ( #33, ( #59 ) ) ;
#203 = ADVANCED_FACE ( 'NONE', ( #184, #75 ), #152, .T. ) ;
#204 = PERSON_AND_ORGANIZATION ( #114, #99 ) ;
#205 = DIRECTION ( 'NONE',  ( 3.491481338843133355E-15, -1.224646799147353207E-16, 1.000000000000000000 ) ) ;
#206 = CARTESIAN_POINT ( 'NONE',  ( 0.0000000000000000000, 0.0000000000000000000, 0.0000000000000000000 ) ) ;
#207 = EDGE_LOOP ( 'NONE', ( #191 ) ) ;
#208 = AXIS2_PLACEMENT_3D ( 'NONE', #55, #60, #21 ) ;
#209 = AXIS2_PLACEMENT_3D ( 'NONE', #206, #107, #221 ) ;
#210 = PERSON_AND_ORGANIZATION_ROLE ( 'creator' ) ;
#211 = PERSON_AND_ORGANIZATION ( #114, #99 ) ;
#212 = DIRECTION ( 'NONE',  ( 0.0000000000000000000, 1.000000000000000000, 0.0000000000000000000 ) ) ;
#213 = CARTESIAN_POINT ( 'NONE',  ( 1.980287612925911086E-14, 0.4999999999999963363, 5.671769145362406839 ) ) ;
#214 = ORIENTED_EDGE ( 'NONE', *, *, #96, .F. ) ;
#215 = DIRECTION ( 'NONE',  ( 0.0000000000000000000, 1.000000000000000000, 0.0000000000000000000 ) ) ;
#216 = EDGE_LOOP ( 'NONE', ( #171 ) ) ;
#217 = COORDINATED_UNIVERSAL_TIME_OFFSET ( 1, 0, .AHEAD. ) ;
#218 = LOCAL_TIME ( 15, 47, 35.00000000000000000, #217 ) ;
#219 = VERTEX_POINT ( 'NONE', #92 ) ;
#220 = PERSON_AND_ORGANIZATION_ROLE ( 'design_owner' ) ;
#221 = DIRECTION ( 'NONE',  ( 4.275831445896958607E-31, 1.000000000000000000, 1.224646799147353207E-16 ) ) ;
#222 = EDGE_LOOP ( 'NONE', ( #4 ) ) ;
#223 = DATE_AND_TIME ( #147, #127 ) ;
ENDSEC;
END-ISO-10303-21;
