ISO-10303-21;
HEADER;
FILE_DESCRIPTION (( 'STEP AP203' ),
    '1' );
FILE_NAME ('38072.step',
    '2021-10-07T13:47:34',
    ( '' ),
    ( '' ),
    'SwSTEP 2.0',
    'SolidWorks 2019',
    '' );
FILE_SCHEMA (( 'CONFIG_CONTROL_DESIGN' ));
ENDSEC;

DATA;
#1 = CALENDAR_DATE ( 2021, 7, 10 ) ;
#2 = SHAPE_DEFINITION_REPRESENTATION ( #41, #145 ) ;
#3 = LOCAL_TIME ( 15, 47, 34.00000000000000000, #4 ) ;
#4 = COORDINATED_UNIVERSAL_TIME_OFFSET ( 1, 0, .AHEAD. ) ;
#5 = EDGE_LOOP ( 'NONE', ( #126 ) ) ;
#6 = CONICAL_SURFACE ( 'NONE', #165, 0.3999999999999988565, 0.7853981633974689291 ) ;
#7 = EDGE_LOOP ( 'NONE', ( #43 ) ) ;
#8 = EDGE_LOOP ( 'NONE', ( #176 ) ) ;
#9 = ORIENTED_EDGE ( 'NONE', *, *, #196, .F. ) ;
#10 = CARTESIAN_POINT ( 'NONE',  ( 6.608364961528501481E-16, -2.317902406551284929E-17, 0.1892710949936829701 ) ) ;
#11 = CARTESIAN_POINT ( 'NONE',  ( 1.047444401652940007E-13, -3.673940397442059178E-15, 30.00000000000000000 ) ) ;
#12 = DIRECTION ( 'NONE',  ( 3.057031657757526729E-31, 1.000000000000000000, 8.604779146710379396E-17 ) ) ;
#13 = DIRECTION ( 'NONE',  ( 0.0000000000000000000, 1.000000000000000000, 0.0000000000000000000 ) ) ;
#14 = CARTESIAN_POINT ( 'NONE',  ( 1.043952920314096936E-13, 0.4999999999999952260, 29.90000000000000213 ) ) ;
#15 = ADVANCED_FACE ( 'NONE', ( #90 ), #179, .T. ) ;
#16 = APPROVAL_STATUS ( 'not_yet_approved' ) ;
#17 = PERSON_AND_ORGANIZATION ( #60, #69 ) ;
#18 = PERSON_AND_ORGANIZATION_ROLE ( 'design_owner' ) ;
#19 = DIRECTION ( 'NONE',  ( -3.491481338843133355E-15, 1.224646799147353207E-16, -1.000000000000000000 ) ) ;
#20 = ORIENTED_EDGE ( 'NONE', *, *, #207, .F. ) ;
#21 = CIRCLE ( 'NONE', #97, 0.3149999999999997802 ) ;
#22 = EDGE_LOOP ( 'NONE', ( #20 ) ) ;
#23 = EDGE_LOOP ( 'NONE', ( #210 ) ) ;
#24 = ADVANCED_FACE ( 'NONE', ( #214, #92 ), #6, .T. ) ;
#25 = DIRECTION ( 'NONE',  ( -3.057031657757526729E-31, -1.000000000000000000, -8.604779146710379396E-17 ) ) ;
#26 = CLOSED_SHELL ( 'NONE', ( #48, #63, #122, #24, #28 ) ) ;
#27 = FACE_OUTER_BOUND ( 'NONE', #8, .T. ) ;
#28 = ADVANCED_FACE ( 'NONE', ( #105 ), #127, .F. ) ;
#29 = CARTESIAN_POINT ( 'NONE',  ( 1.745740669421566678E-14, -6.123233995736766282E-16, 5.000000000000000000 ) ) ;
#30 = CARTESIAN_POINT ( 'NONE',  ( 0.0000000000000000000, 0.0000000000000000000, 0.0000000000000000000 ) ) ;
#31 = PRODUCT_DEFINITION_FORMATION_WITH_SPECIFIED_SOURCE ( 'ANY', '', #212, .NOT_KNOWN. ) ;
#32 = CARTESIAN_POINT ( 'NONE',  ( 1.745740669421566678E-14, 0.3149999999999992251, 5.000000000000000000 ) ) ;
#33 = CALENDAR_DATE ( 2021, 7, 10 ) ;
#34 = CALENDAR_DATE ( 2021, 7, 10 ) ;
#35 = CIRCLE ( 'NONE', #87, 0.3149999999999990030 ) ;
#36 = PRODUCT_DEFINITION ( 'UNKNOWN', '', #31, #218 ) ;
#37 = MECHANICAL_CONTEXT ( 'NONE', #62, 'mechanical' ) ;
#38 = SECURITY_CLASSIFICATION ( '', '', #153 ) ;
#39 = EDGE_LOOP ( 'NONE', ( #9 ) ) ;
#40 = EDGE_LOOP ( 'NONE', ( #157 ) ) ;
#41 = PRODUCT_DEFINITION_SHAPE ( 'NONE', 'NONE',  #36 ) ;
#42 = AXIS2_PLACEMENT_3D ( 'NONE', #187, #101, #84 ) ;
#43 = ORIENTED_EDGE ( 'NONE', *, *, #45, .F. ) ;
#44 = VERTEX_POINT ( 'NONE', #198 ) ;
#45 = EDGE_CURVE ( 'NONE', #46, #46, #65, .T. ) ;
#46 = VERTEX_POINT ( 'NONE', #111 ) ;
#47 = DIRECTION ( 'NONE',  ( 4.275831445896958607E-31, 1.000000000000000000, 1.224646799147353207E-16 ) ) ;
#48 = ADVANCED_FACE ( 'NONE', ( #106 ), #56, .F. ) ;
#49 = DIRECTION ( 'NONE',  ( 0.0000000000000000000, 1.000000000000000000, 0.0000000000000000000 ) ) ;
#50 = COORDINATED_UNIVERSAL_TIME_OFFSET ( 1, 0, .AHEAD. ) ;
#51 = APPROVAL_ROLE ( '' ) ;
#52 = APPROVAL_STATUS ( 'not_yet_approved' ) ;
#53 = DATE_AND_TIME ( #1, #59 ) ;
#54 = ORIENTED_EDGE ( 'NONE', *, *, #207, .T. ) ;
#55 = PERSON_AND_ORGANIZATION ( #60, #69 ) ;
#56 = PLANE ( 'NONE',  #215 ) ;
#57 = CC_DESIGN_PERSON_AND_ORGANIZATION_ASSIGNMENT ( #135, #206, ( #31 ) ) ;
#58 = CONICAL_SURFACE ( 'NONE', #81, 0.4999999999999970024, 0.2617993877991424689 ) ;
#59 = LOCAL_TIME ( 15, 47, 34.00000000000000000, #204 ) ;
#60 = PERSON ( 'UNSPECIFIED', 'UNSPECIFIED', 'UNSPECIFIED', ('UNSPECIFIED'), ('UNSPECIFIED'), ('UNSPECIFIED') ) ;
#61 = CARTESIAN_POINT ( 'NONE',  ( 1.043952920314096936E-13, -3.661693929450586610E-15, 29.90000000000000213 ) ) ;
#62 = APPLICATION_CONTEXT ( 'configuration controlled 3d designs of mechanical parts and assemblies' ) ;
#63 = ADVANCED_FACE ( 'NONE', ( #138, #113 ), #58, .T. ) ;
#64 = DIRECTION ( 'NONE',  ( -4.275831445896958607E-31, -1.000000000000000000, -1.224646799147353207E-16 ) ) ;
#65 = CIRCLE ( 'NONE', #192, 0.4999999999999970024 ) ;
#66 = DIRECTION ( 'NONE',  ( -3.491481338843133355E-15, 1.224646799147353207E-16, -1.000000000000000000 ) ) ;
#67 = PERSON_AND_ORGANIZATION ( #60, #69 ) ;
#68 = APPLICATION_PROTOCOL_DEFINITION ( 'international standard', 'config_control_design', 1994, #91 ) ;
#69 = ORGANIZATION ( 'UNSPECIFIED', 'UNSPECIFIED', '' ) ;
#70 = COORDINATED_UNIVERSAL_TIME_OFFSET ( 1, 0, .AHEAD. ) ;
#71 = CIRCLE ( 'NONE', #159, 0.3999999999999988565 ) ;
#72 = DIRECTION ( 'NONE',  ( -4.275831445896958607E-31, -1.000000000000000000, -1.224646799147353207E-16 ) ) ;
#73 = EDGE_LOOP ( 'NONE', ( #89 ) ) ;
#74 = AXIS2_PLACEMENT_3D ( 'NONE', #29, #66, #13 ) ;
#75 = CC_DESIGN_PERSON_AND_ORGANIZATION_ASSIGNMENT ( #201, #18, ( #212 ) ) ;
#76 = DIRECTION ( 'NONE',  ( -3.491481338843133355E-15, 1.224646799147353207E-16, -1.000000000000000000 ) ) ;
#77 = FACE_OUTER_BOUND ( 'NONE', #177, .T. ) ;
#78 = VERTEX_POINT ( 'NONE', #144 ) ;
#79 = CARTESIAN_POINT ( 'NONE',  ( 1.986802805801031597E-14, -6.968766149749512147E-16, 5.690429399400250610 ) ) ;
#80 = ADVANCED_FACE ( 'NONE', ( #222 ), #181, .T. ) ;
#81 = AXIS2_PLACEMENT_3D ( 'NONE', #79, #147, #183 ) ;
#82 = APPROVAL_STATUS ( 'not_yet_approved' ) ;
#83 = DATE_AND_TIME ( #102, #115 ) ;
#84 = DIRECTION ( 'NONE',  ( 1.000000000000000000, 0.0000000000000000000, 0.0000000000000000000 ) ) ;
#85 = APPROVAL_PERSON_ORGANIZATION ( #55, #112, #136 ) ;
#86 = DIRECTION ( 'NONE',  ( 0.0000000000000000000, 1.000000000000000000, 0.0000000000000000000 ) ) ;
#87 = AXIS2_PLACEMENT_3D ( 'NONE', #10, #76, #12 ) ;
#88 = DIRECTION ( 'NONE',  ( -3.491481338843133355E-15, 1.224646799147353207E-16, -1.000000000000000000 ) ) ;
#89 = ORIENTED_EDGE ( 'NONE', *, *, #103, .F. ) ;
#90 = FACE_OUTER_BOUND ( 'NONE', #5, .T. ) ;
#91 = APPLICATION_CONTEXT ( 'configuration controlled 3d designs of mechanical parts and assemblies' ) ;
#92 = FACE_BOUND ( 'NONE', #217, .T. ) ;
#93 = DIRECTION ( 'NONE',  ( 3.491481338843133355E-15, -1.224646799147353207E-16, 1.000000000000000000 ) ) ;
#94 = DIRECTION ( 'NONE',  ( -3.491481338843133355E-15, 1.224646799147353207E-16, -1.000000000000000000 ) ) ;
#95 = CC_DESIGN_DATE_AND_TIME_ASSIGNMENT ( #99, #208, ( #36 ) ) ;
#96 = CARTESIAN_POINT ( 'NONE',  ( 1.745740669421566678E-14, -6.123233995736766282E-16, 5.000000000000000000 ) ) ;
#97 = AXIS2_PLACEMENT_3D ( 'NONE', #96, #164, #49 ) ;
#98 = VERTEX_POINT ( 'NONE', #14 ) ;
#99 = DATE_AND_TIME ( #137, #124 ) ;
#100 = APPROVAL_ROLE ( '' ) ;
#101 = DIRECTION ( 'NONE',  ( 0.0000000000000000000, 0.0000000000000000000, 1.000000000000000000 ) ) ;
#102 = CALENDAR_DATE ( 2021, 7, 10 ) ;
#103 = EDGE_CURVE ( 'NONE', #44, #44, #148, .T. ) ;
#104 = APPROVAL_PERSON_ORGANIZATION ( #67, #158, #100 ) ;
#105 = FACE_OUTER_BOUND ( 'NONE', #40, .T. ) ;
#106 = FACE_OUTER_BOUND ( 'NONE', #174, .T. ) ;
#107 = CC_DESIGN_APPROVAL ( #211, ( #36 ) ) ;
#108 = EDGE_LOOP ( 'NONE', ( #191 ) ) ;
#109 = CARTESIAN_POINT ( 'NONE',  ( 6.608364961528502467E-16, 0.3149999999999990030, 0.1892710949936829978 ) ) ;
#110 = AXIS2_PLACEMENT_3D ( 'NONE', #167, #93, #64 ) ;
#111 = CARTESIAN_POINT ( 'NONE',  ( 1.986802805801031597E-14, 0.4999999999999963363, 5.690429399400250610 ) ) ;
#112 = APPROVAL ( #82, 'UNSPECIFIED' ) ;
#113 = FACE_OUTER_BOUND ( 'NONE', #108, .T. ) ;
#114 = DIRECTION ( 'NONE',  ( -3.491481338843133355E-15, 1.224646799147353207E-16, -1.000000000000000000 ) ) ;
#115 = LOCAL_TIME ( 15, 47, 34.00000000000000000, #50 ) ;
#116 = CC_DESIGN_SECURITY_CLASSIFICATION ( #38, ( #31 ) ) ;
#117 = VERTEX_POINT ( 'NONE', #109 ) ;
#118 = DATE_AND_TIME ( #33, #3 ) ;
#119 = CC_DESIGN_PERSON_AND_ORGANIZATION_ASSIGNMENT ( #17, #150, ( #38 ) ) ;
#120 = PERSON_AND_ORGANIZATION ( #60, #69 ) ;
#121 = PERSON_AND_ORGANIZATION ( #60, #69 ) ;
#122 = ADVANCED_FACE ( 'NONE', ( #162, #77 ), #197, .T. ) ;
#123 = DIRECTION ( 'NONE',  ( 4.275831445896958607E-31, 1.000000000000000000, 1.224646799147353207E-16 ) ) ;
#124 = LOCAL_TIME ( 15, 47, 34.00000000000000000, #70 ) ;
#125 = EDGE_CURVE ( 'NONE', #117, #117, #35, .T. ) ;
#126 = ORIENTED_EDGE ( 'NONE', *, *, #125, .T. ) ;
#127 = PLANE ( 'NONE',  #129 ) ;
#128 = DIRECTION ( 'NONE',  ( 0.0000000000000000000, 1.000000000000000000, 0.0000000000000000000 ) ) ;
#129 = AXIS2_PLACEMENT_3D ( 'NONE', #195, #88, #123 ) ;
#130 = FACE_OUTER_BOUND ( 'NONE', #23, .T. ) ;
#131 =( NAMED_UNIT ( * ) PLANE_ANGLE_UNIT ( ) SI_UNIT ( $, .RADIAN. ) );
#132 = VERTEX_POINT ( 'NONE', #32 ) ;
#133 = CC_DESIGN_APPROVAL ( #112, ( #31 ) ) ;
#134 = CARTESIAN_POINT ( 'NONE',  ( 0.0000000000000000000, 0.0000000000000000000, 0.0000000000000000000 ) ) ;
#135 = PERSON_AND_ORGANIZATION ( #60, #69 ) ;
#136 = APPROVAL_ROLE ( '' ) ;
#137 = CALENDAR_DATE ( 2021, 7, 10 ) ;
#138 = FACE_BOUND ( 'NONE', #39, .T. ) ;
#139 = DIRECTION ( 'NONE',  ( -3.491481338843133355E-15, 1.224646799147353207E-16, -1.000000000000000000 ) ) ;
#140 = MANIFOLD_SOLID_BREP ( 'Corps-Déplacer/Copier1[2]', #223 ) ;
#141 = CC_DESIGN_PERSON_AND_ORGANIZATION_ASSIGNMENT ( #121, #149, ( #31 ) ) ;
#142 = DIRECTION ( 'NONE',  ( -3.491481338843133355E-15, 1.224646799147353207E-16, -1.000000000000000000 ) ) ;
#143 = MANIFOLD_SOLID_BREP ( 'Corps-Déplacer/Copier1[1]', #26 ) ;
#144 = CARTESIAN_POINT ( 'NONE',  ( 1.047444401652940007E-13, 0.3999999999999951927, 30.00000000000000000 ) ) ;
#145 = ADVANCED_BREP_SHAPE_REPRESENTATION ( '38072', ( #143, #140, #42 ), #152 ) ;
#146 = ADVANCED_FACE ( 'NONE', ( #130, #27 ), #182, .T. ) ;
#147 = DIRECTION ( 'NONE',  ( 3.491481338843133355E-15, -1.224646799147353207E-16, 1.000000000000000000 ) ) ;
#148 = CIRCLE ( 'NONE', #74, 0.3149999999999997802 ) ;
#149 = PERSON_AND_ORGANIZATION_ROLE ( 'creator' ) ;
#150 = PERSON_AND_ORGANIZATION_ROLE ( 'classification_officer' ) ;
#151 = PERSON_AND_ORGANIZATION_ROLE ( 'creator' ) ;
#152 =( GEOMETRIC_REPRESENTATION_CONTEXT ( 3 ) GLOBAL_UNCERTAINTY_ASSIGNED_CONTEXT ( ( #178 ) ) GLOBAL_UNIT_ASSIGNED_CONTEXT ( ( #180, #131, #221 ) ) REPRESENTATION_CONTEXT ( 'NONE', 'WORKASPACE' ) );
#153 = SECURITY_CLASSIFICATION_LEVEL ( 'unclassified' ) ;
#154 = EDGE_CURVE ( 'NONE', #78, #78, #71, .T. ) ;
#155 = DIRECTION ( 'NONE',  ( 3.491481338843133355E-15, -1.224646799147353207E-16, 1.000000000000000000 ) ) ;
#156 = CARTESIAN_POINT ( 'NONE',  ( 1.745740669421566678E-14, 2.362121657692415264E-33, 5.000000000000000000 ) ) ;
#157 = ORIENTED_EDGE ( 'NONE', *, *, #154, .F. ) ;
#158 = APPROVAL ( #52, 'UNSPECIFIED' ) ;
#159 = AXIS2_PLACEMENT_3D ( 'NONE', #11, #114, #220 ) ;
#160 = CARTESIAN_POINT ( 'NONE',  ( 1.047444401652940007E-13, -3.673940397442059178E-15, 30.00000000000000000 ) ) ;
#161 = CC_DESIGN_PERSON_AND_ORGANIZATION_ASSIGNMENT ( #120, #151, ( #36 ) ) ;
#162 = FACE_OUTER_BOUND ( 'NONE', #7, .T. ) ;
#163 = DIRECTION ( 'NONE',  ( 4.275831445896958607E-31, 1.000000000000000000, 1.224646799147352961E-16 ) ) ;
#164 = DIRECTION ( 'NONE',  ( -3.491481338843133355E-15, 1.224646799147353207E-16, -1.000000000000000000 ) ) ;
#165 = AXIS2_PLACEMENT_3D ( 'NONE', #160, #139, #219 ) ;
#166 = APPLICATION_PROTOCOL_DEFINITION ( 'international standard', 'config_control_design', 1994, #62 ) ;
#167 = CARTESIAN_POINT ( 'NONE',  ( 1.745740669421566678E-14, 2.362121657692415264E-33, 5.000000000000000000 ) ) ;
#168 = PERSON_AND_ORGANIZATION ( #60, #69 ) ;
#169 = AXIS2_PLACEMENT_3D ( 'NONE', #30, #199, #47 ) ;
#170 = APPROVAL_DATE_TIME ( #186, #158 ) ;
#171 = DATE_TIME_ROLE ( 'classification_date' ) ;
#172 = LOCAL_TIME ( 15, 47, 34.00000000000000000, #203 ) ;
#173 = DIRECTION ( 'NONE',  ( 3.491481338843133355E-15, -1.224646799147353207E-16, 1.000000000000000000 ) ) ;
#174 = EDGE_LOOP ( 'NONE', ( #194 ) ) ;
#175 = AXIS2_PLACEMENT_3D ( 'NONE', #134, #142, #163 ) ;
#176 = ORIENTED_EDGE ( 'NONE', *, *, #103, .T. ) ;
#177 = EDGE_LOOP ( 'NONE', ( #54 ) ) ;
#178 = UNCERTAINTY_MEASURE_WITH_UNIT (LENGTH_MEASURE( 1.000000000000000082E-05 ), #180, 'distance_accuracy_value', 'NONE');
#179 = CONICAL_SURFACE ( 'NONE', #209, 0.3149999999999990030, 1.029744258676649649 ) ;
#180 =( LENGTH_UNIT ( ) NAMED_UNIT ( * ) SI_UNIT ( .MILLI., .METRE. ) );
#181 = PLANE ( 'NONE',  #110 ) ;
#182 = CYLINDRICAL_SURFACE ( 'NONE', #169, 0.3149999999999993916 ) ;
#183 = DIRECTION ( 'NONE',  ( 0.0000000000000000000, -1.000000000000000000, 0.0000000000000000000 ) ) ;
#184 = APPROVAL_DATE_TIME ( #83, #112 ) ;
#185 = CC_DESIGN_DATE_AND_TIME_ASSIGNMENT ( #53, #171, ( #38 ) ) ;
#186 = DATE_AND_TIME ( #34, #172 ) ;
#187 = CARTESIAN_POINT ( 'NONE',  ( 0.0000000000000000000, 0.0000000000000000000, 0.0000000000000000000 ) ) ;
#188 = APPROVAL_DATE_TIME ( #118, #211 ) ;
#189 = AXIS2_PLACEMENT_3D ( 'NONE', #61, #94, #128 ) ;
#190 = ORIENTED_EDGE ( 'NONE', *, *, #154, .T. ) ;
#191 = ORIENTED_EDGE ( 'NONE', *, *, #45, .T. ) ;
#192 = AXIS2_PLACEMENT_3D ( 'NONE', #193, #19, #86 ) ;
#193 = CARTESIAN_POINT ( 'NONE',  ( 1.986802805801031597E-14, -6.968766149749512147E-16, 5.690429399400250610 ) ) ;
#194 = ORIENTED_EDGE ( 'NONE', *, *, #196, .T. ) ;
#195 = CARTESIAN_POINT ( 'NONE',  ( 1.047444401652940007E-13, 2.999519565323651582E-33, 30.00000000000000000 ) ) ;
#196 = EDGE_CURVE ( 'NONE', #132, #132, #21, .T. ) ;
#197 = CYLINDRICAL_SURFACE ( 'NONE', #175, 0.4999999999999979461 ) ;
#198 = CARTESIAN_POINT ( 'NONE',  ( 1.745740669421566678E-14, 0.3149999999999992251, 5.000000000000000000 ) ) ;
#199 = DIRECTION ( 'NONE',  ( -3.491481338843133355E-15, 1.224646799147353207E-16, -1.000000000000000000 ) ) ;
#200 = CIRCLE ( 'NONE', #189, 0.4999999999999989453 ) ;
#201 = PERSON_AND_ORGANIZATION ( #60, #69 ) ;
#202 = PRODUCT_RELATED_PRODUCT_CATEGORY ( 'detail', '', ( #212 ) ) ;
#203 = COORDINATED_UNIVERSAL_TIME_OFFSET ( 1, 0, .AHEAD. ) ;
#204 = COORDINATED_UNIVERSAL_TIME_OFFSET ( 1, 0, .AHEAD. ) ;
#205 = APPROVAL_PERSON_ORGANIZATION ( #168, #211, #51 ) ;
#206 = PERSON_AND_ORGANIZATION_ROLE ( 'design_supplier' ) ;
#207 = EDGE_CURVE ( 'NONE', #98, #98, #200, .T. ) ;
#208 = DATE_TIME_ROLE ( 'creation_date' ) ;
#209 = AXIS2_PLACEMENT_3D ( 'NONE', #213, #173, #25 ) ;
#210 = ORIENTED_EDGE ( 'NONE', *, *, #125, .F. ) ;
#211 = APPROVAL ( #16, 'UNSPECIFIED' ) ;
#212 = PRODUCT ( '38072', '38072', '', ( #37 ) ) ;
#213 = CARTESIAN_POINT ( 'NONE',  ( 6.608364961528501481E-16, -2.317902406551284929E-17, 0.1892710949936829701 ) ) ;
#214 = FACE_OUTER_BOUND ( 'NONE', #22, .T. ) ;
#215 = AXIS2_PLACEMENT_3D ( 'NONE', #156, #155, #72 ) ;
#216 = CC_DESIGN_APPROVAL ( #158, ( #38 ) ) ;
#217 = EDGE_LOOP ( 'NONE', ( #190 ) ) ;
#218 = DESIGN_CONTEXT ( 'detailed design', #91, 'design' ) ;
#219 = DIRECTION ( 'NONE',  ( 0.0000000000000000000, 1.000000000000000000, 0.0000000000000000000 ) ) ;
#220 = DIRECTION ( 'NONE',  ( 0.0000000000000000000, 1.000000000000000000, 0.0000000000000000000 ) ) ;
#221 =( NAMED_UNIT ( * ) SI_UNIT ( $, .STERADIAN. ) SOLID_ANGLE_UNIT ( ) );
#222 = FACE_OUTER_BOUND ( 'NONE', #73, .T. ) ;
#223 = CLOSED_SHELL ( 'NONE', ( #15, #146, #80 ) ) ;
ENDSEC;
END-ISO-10303-21;
