ISO-10303-21;
HEADER;
FILE_DESCRIPTION (( 'STEP AP203' ),
    '1' );
FILE_NAME ('38070.step',
    '2021-10-07T13:47:34',
    ( '' ),
    ( '' ),
    'SwSTEP 2.0',
    'SolidWorks 2019',
    '' );
FILE_SCHEMA (( 'CONFIG_CONTROL_DESIGN' ));
ENDSEC;

DATA;
#1 = VERTEX_POINT ( 'NONE', #90 ) ;
#2 = CONICAL_SURFACE ( 'NONE', #55, 0.2949999999999989853, 1.029744258676649649 ) ;
#3 = COORDINATED_UNIVERSAL_TIME_OFFSET ( 1, 0, .AHEAD. ) ;
#4 = APPROVAL_PERSON_ORGANIZATION ( #40, #15, #179 ) ;
#5 = DATE_AND_TIME ( #108, #34 ) ;
#6 = EDGE_CURVE ( 'NONE', #98, #98, #79, .T. ) ;
#7 = PERSON_AND_ORGANIZATION ( #167, #118 ) ;
#8 = SECURITY_CLASSIFICATION ( '', '', #196 ) ;
#9 = ADVANCED_FACE ( 'NONE', ( #10 ), #43, .F. ) ;
#10 = FACE_OUTER_BOUND ( 'NONE', #137, .T. ) ;
#11 = DESIGN_CONTEXT ( 'detailed design', #94, 'design' ) ;
#12 = CARTESIAN_POINT ( 'NONE',  ( 1.838289510359357606E-14, -6.447851631690728250E-16, 5.265070415551630134 ) ) ;
#13 = CARTESIAN_POINT ( 'NONE',  ( 6.188786233812405226E-16, -2.170733999786123839E-17, 0.1772538826131316581 ) ) ;
#14 = DIRECTION ( 'NONE',  ( -3.264288041334309338E-31, -1.000000000000000000, -9.188154004114476111E-17 ) ) ;
#15 = APPROVAL ( #23, 'UNSPECIFIED' ) ;
#16 = VERTEX_POINT ( 'NONE', #85 ) ;
#17 = CARTESIAN_POINT ( 'NONE',  ( 1.047444401652940007E-13, -3.673940397442059178E-15, 30.00000000000000000 ) ) ;
#18 = DIRECTION ( 'NONE',  ( -3.491481338843133355E-15, 1.224646799147353207E-16, -1.000000000000000000 ) ) ;
#19 = CC_DESIGN_APPROVAL ( #73, ( #8 ) ) ;
#20 = PERSON_AND_ORGANIZATION_ROLE ( 'classification_officer' ) ;
#21 = ORIENTED_EDGE ( 'NONE', *, *, #155, .F. ) ;
#22 = ORIENTED_EDGE ( 'NONE', *, *, #212, .T. ) ;
#23 = APPROVAL_STATUS ( 'not_yet_approved' ) ;
#24 = CARTESIAN_POINT ( 'NONE',  ( 1.043952920314096936E-13, 0.4999999999999952260, 29.90000000000000213 ) ) ;
#25 = CARTESIAN_POINT ( 'NONE',  ( 0.0000000000000000000, 0.0000000000000000000, 0.0000000000000000000 ) ) ;
#26 = PERSON_AND_ORGANIZATION_ROLE ( 'design_supplier' ) ;
#27 = APPROVAL_STATUS ( 'not_yet_approved' ) ;
#28 = APPROVAL_PERSON_ORGANIZATION ( #75, #51, #109 ) ;
#29 = CLOSED_SHELL ( 'NONE', ( #139, #183, #68, #181, #9 ) ) ;
#30 = PRODUCT_DEFINITION ( 'UNKNOWN', '', #80, #11 ) ;
#31 = DIRECTION ( 'NONE',  ( -3.491481338843133355E-15, 1.224646799147353207E-16, -1.000000000000000000 ) ) ;
#32 = CARTESIAN_POINT ( 'NONE',  ( 6.188786233812405226E-16, -2.170733999786123839E-17, 0.1772538826131316581 ) ) ;
#33 = AXIS2_PLACEMENT_3D ( 'NONE', #82, #197, #123 ) ;
#34 = LOCAL_TIME ( 15, 47, 34.00000000000000000, #53 ) ;
#35 = DIRECTION ( 'NONE',  ( 4.275831445896958607E-31, 1.000000000000000000, 1.224646799147353207E-16 ) ) ;
#36 = UNCERTAINTY_MEASURE_WITH_UNIT (LENGTH_MEASURE( 1.000000000000000082E-05 ), #146, 'distance_accuracy_value', 'NONE');
#37 = CARTESIAN_POINT ( 'NONE',  ( 1.571166602479410010E-14, 2.212145679426227724E-33, 4.500000000000000000 ) ) ;
#38 = ORIENTED_EDGE ( 'NONE', *, *, #190, .T. ) ;
#39 = CARTESIAN_POINT ( 'NONE',  ( 0.0000000000000000000, 0.0000000000000000000, 0.0000000000000000000 ) ) ;
#40 = PERSON_AND_ORGANIZATION ( #167, #118 ) ;
#41 = VERTEX_POINT ( 'NONE', #24 ) ;
#42 = LOCAL_TIME ( 15, 47, 34.00000000000000000, #177 ) ;
#43 = PLANE ( 'NONE',  #201 ) ;
#44 = CONICAL_SURFACE ( 'NONE', #176, 0.4999999999999970024, 0.2617993877991430240 ) ;
#45 = CARTESIAN_POINT ( 'NONE',  ( 1.571166602479410010E-14, 2.212145679426227724E-33, 4.500000000000000000 ) ) ;
#46 = CARTESIAN_POINT ( 'NONE',  ( 1.571166602479410010E-14, -5.510910596163088569E-16, 4.500000000000000000 ) ) ;
#47 = ORIENTED_EDGE ( 'NONE', *, *, #105, .F. ) ;
#48 = FACE_OUTER_BOUND ( 'NONE', #156, .T. ) ;
#49 = FACE_OUTER_BOUND ( 'NONE', #186, .T. ) ;
#50 = PLANE ( 'NONE',  #162 ) ;
#51 = APPROVAL ( #150, 'UNSPECIFIED' ) ;
#52 = APPROVAL_PERSON_ORGANIZATION ( #61, #73, #115 ) ;
#53 = COORDINATED_UNIVERSAL_TIME_OFFSET ( 1, 0, .AHEAD. ) ;
#54 = APPROVAL_DATE_TIME ( #209, #51 ) ;
#55 = AXIS2_PLACEMENT_3D ( 'NONE', #32, #86, #14 ) ;
#56 = PERSON_AND_ORGANIZATION ( #167, #118 ) ;
#57 = ORIENTED_EDGE ( 'NONE', *, *, #190, .F. ) ;
#58 = EDGE_LOOP ( 'NONE', ( #154 ) ) ;
#59 = AXIS2_PLACEMENT_3D ( 'NONE', #37, #214, #143 ) ;
#60 = ADVANCED_FACE ( 'NONE', ( #101 ), #2, .T. ) ;
#61 = PERSON_AND_ORGANIZATION ( #167, #118 ) ;
#62 = DIRECTION ( 'NONE',  ( -3.491481338843133355E-15, 1.224646799147353207E-16, -1.000000000000000000 ) ) ;
#63 = CC_DESIGN_PERSON_AND_ORGANIZATION_ASSIGNMENT ( #192, #89, ( #95 ) ) ;
#64 = FACE_BOUND ( 'NONE', #110, .T. ) ;
#65 = CARTESIAN_POINT ( 'NONE',  ( 1.838289510359357606E-14, 0.4999999999999963363, 5.265070415551630134 ) ) ;
#66 = CYLINDRICAL_SURFACE ( 'NONE', #33, 0.2949999999999992628 ) ;
#67 = ORIENTED_EDGE ( 'NONE', *, *, #212, .F. ) ;
#68 = ADVANCED_FACE ( 'NONE', ( #220, #159 ), #157, .T. ) ;
#69 = CARTESIAN_POINT ( 'NONE',  ( 1.047444401652940007E-13, -3.673940397442059178E-15, 30.00000000000000000 ) ) ;
#70 = DIRECTION ( 'NONE',  ( 0.0000000000000000000, 1.000000000000000000, 0.0000000000000000000 ) ) ;
#71 =( NAMED_UNIT ( * ) SI_UNIT ( $, .STERADIAN. ) SOLID_ANGLE_UNIT ( ) );
#72 = EDGE_LOOP ( 'NONE', ( #67 ) ) ;
#73 = APPROVAL ( #27, 'UNSPECIFIED' ) ;
#74 = AXIS2_PLACEMENT_3D ( 'NONE', #39, #206, #219 ) ;
#75 = PERSON_AND_ORGANIZATION ( #167, #118 ) ;
#76 = ORIENTED_EDGE ( 'NONE', *, *, #6, .F. ) ;
#77 = APPROVAL_DATE_TIME ( #5, #15 ) ;
#78 = AXIS2_PLACEMENT_3D ( 'NONE', #141, #97, #173 ) ;
#79 = CIRCLE ( 'NONE', #178, 0.4999999999999970024 ) ;
#80 = PRODUCT_DEFINITION_FORMATION_WITH_SPECIFIED_SOURCE ( 'ANY', '', #95, .NOT_KNOWN. ) ;
#81 = DIRECTION ( 'NONE',  ( 0.0000000000000000000, -1.000000000000000000, 0.0000000000000000000 ) ) ;
#82 = CARTESIAN_POINT ( 'NONE',  ( 0.0000000000000000000, 0.0000000000000000000, 0.0000000000000000000 ) ) ;
#83 = LOCAL_TIME ( 15, 47, 34.00000000000000000, #87 ) ;
#84 = DIRECTION ( 'NONE',  ( -3.491481338843133355E-15, 1.224646799147353207E-16, -1.000000000000000000 ) ) ;
#85 = CARTESIAN_POINT ( 'NONE',  ( 1.047444401652940007E-13, 0.3999999999999951927, 30.00000000000000000 ) ) ;
#86 = DIRECTION ( 'NONE',  ( 3.491481338843133355E-15, -1.224646799147353207E-16, 1.000000000000000000 ) ) ;
#87 = COORDINATED_UNIVERSAL_TIME_OFFSET ( 1, 0, .AHEAD. ) ;
#88 = APPLICATION_CONTEXT ( 'configuration controlled 3d designs of mechanical parts and assemblies' ) ;
#89 = PERSON_AND_ORGANIZATION_ROLE ( 'design_owner' ) ;
#90 = CARTESIAN_POINT ( 'NONE',  ( 1.571166602479410010E-14, 0.2949999999999989297, 4.500000000000000000 ) ) ;
#91 = EDGE_LOOP ( 'NONE', ( #148 ) ) ;
#92 = CC_DESIGN_PERSON_AND_ORGANIZATION_ASSIGNMENT ( #166, #128, ( #30 ) ) ;
#93 = AXIS2_PLACEMENT_3D ( 'NONE', #119, #185, #122 ) ;
#94 = APPLICATION_CONTEXT ( 'configuration controlled 3d designs of mechanical parts and assemblies' ) ;
#95 = PRODUCT ( '38070', '38070', '', ( #125 ) ) ;
#96 = CC_DESIGN_PERSON_AND_ORGANIZATION_ASSIGNMENT ( #7, #20, ( #8 ) ) ;
#97 = DIRECTION ( 'NONE',  ( -3.491481338843133355E-15, 1.224646799147353207E-16, -1.000000000000000000 ) ) ;
#98 = VERTEX_POINT ( 'NONE', #65 ) ;
#99 = CLOSED_SHELL ( 'NONE', ( #60, #121, #145 ) ) ;
#100 =( GEOMETRIC_REPRESENTATION_CONTEXT ( 3 ) GLOBAL_UNCERTAINTY_ASSIGNED_CONTEXT ( ( #36 ) ) GLOBAL_UNIT_ASSIGNED_CONTEXT ( ( #146, #210, #71 ) ) REPRESENTATION_CONTEXT ( 'NONE', 'WORKASPACE' ) );
#101 = FACE_OUTER_BOUND ( 'NONE', #91, .T. ) ;
#102 = CC_DESIGN_PERSON_AND_ORGANIZATION_ASSIGNMENT ( #129, #195, ( #80 ) ) ;
#103 = FACE_OUTER_BOUND ( 'NONE', #58, .T. ) ;
#104 = CIRCLE ( 'NONE', #93, 0.2949999999999994849 ) ;
#105 = EDGE_CURVE ( 'NONE', #187, #187, #134, .T. ) ;
#106 = EDGE_LOOP ( 'NONE', ( #47 ) ) ;
#107 = DATE_AND_TIME ( #165, #135 ) ;
#108 = CALENDAR_DATE ( 2021, 7, 10 ) ;
#109 = APPROVAL_ROLE ( '' ) ;
#110 = EDGE_LOOP ( 'NONE', ( #168 ) ) ;
#111 = AXIS2_PLACEMENT_3D ( 'NONE', #13, #31, #203 ) ;
#112 = CC_DESIGN_APPROVAL ( #51, ( #80 ) ) ;
#113 = APPLICATION_PROTOCOL_DEFINITION ( 'international standard', 'config_control_design', 1994, #94 ) ;
#114 = CALENDAR_DATE ( 2021, 7, 10 ) ;
#115 = APPROVAL_ROLE ( '' ) ;
#116 = CIRCLE ( 'NONE', #78, 0.4999999999999989453 ) ;
#117 = CARTESIAN_POINT ( 'NONE',  ( 1.047444401652940007E-13, 2.999519565323651582E-33, 30.00000000000000000 ) ) ;
#118 = ORGANIZATION ( 'UNSPECIFIED', 'UNSPECIFIED', '' ) ;
#119 = CARTESIAN_POINT ( 'NONE',  ( 1.571166602479410010E-14, -5.510910596163088569E-16, 4.500000000000000000 ) ) ;
#120 = PRODUCT_DEFINITION_SHAPE ( 'NONE', 'NONE',  #30 ) ;
#121 = ADVANCED_FACE ( 'NONE', ( #198, #49 ), #66, .T. ) ;
#122 = DIRECTION ( 'NONE',  ( 0.0000000000000000000, 1.000000000000000000, 0.0000000000000000000 ) ) ;
#123 = DIRECTION ( 'NONE',  ( 4.275831445896958607E-31, 1.000000000000000000, 1.224646799147353207E-16 ) ) ;
#124 = EDGE_LOOP ( 'NONE', ( #76 ) ) ;
#125 = MECHANICAL_CONTEXT ( 'NONE', #88, 'mechanical' ) ;
#126 = CC_DESIGN_APPROVAL ( #15, ( #30 ) ) ;
#127 = DIRECTION ( 'NONE',  ( 0.0000000000000000000, 0.0000000000000000000, 1.000000000000000000 ) ) ;
#128 = PERSON_AND_ORGANIZATION_ROLE ( 'creator' ) ;
#129 = PERSON_AND_ORGANIZATION ( #167, #118 ) ;
#130 = CIRCLE ( 'NONE', #182, 0.3999999999999988565 ) ;
#131 = CALENDAR_DATE ( 2021, 7, 10 ) ;
#132 = APPROVAL_DATE_TIME ( #138, #73 ) ;
#133 = SHAPE_DEFINITION_REPRESENTATION ( #120, #200 ) ;
#134 = CIRCLE ( 'NONE', #111, 0.2949999999999989853 ) ;
#135 = LOCAL_TIME ( 15, 47, 34.00000000000000000, #3 ) ;
#136 = DATE_TIME_ROLE ( 'classification_date' ) ;
#137 = EDGE_LOOP ( 'NONE', ( #21 ) ) ;
#138 = DATE_AND_TIME ( #114, #172 ) ;
#139 = ADVANCED_FACE ( 'NONE', ( #140 ), #50, .F. ) ;
#140 = FACE_OUTER_BOUND ( 'NONE', #213, .T. ) ;
#141 = CARTESIAN_POINT ( 'NONE',  ( 1.043952920314096936E-13, -3.661693929450586610E-15, 29.90000000000000213 ) ) ;
#142 = DIRECTION ( 'NONE',  ( 3.491481338843133355E-15, -1.224646799147353207E-16, 1.000000000000000000 ) ) ;
#143 = DIRECTION ( 'NONE',  ( -4.275831445896958607E-31, -1.000000000000000000, -1.224646799147353207E-16 ) ) ;
#144 = APPLICATION_PROTOCOL_DEFINITION ( 'international standard', 'config_control_design', 1994, #88 ) ;
#145 = ADVANCED_FACE ( 'NONE', ( #175 ), #199, .T. ) ;
#146 =( LENGTH_UNIT ( ) NAMED_UNIT ( * ) SI_UNIT ( .MILLI., .METRE. ) );
#147 = CARTESIAN_POINT ( 'NONE',  ( 1.571166602479410010E-14, 0.2949999999999989297, 4.500000000000000000 ) ) ;
#148 = ORIENTED_EDGE ( 'NONE', *, *, #105, .T. ) ;
#149 = CC_DESIGN_DATE_AND_TIME_ASSIGNMENT ( #107, #194, ( #30 ) ) ;
#150 = APPROVAL_STATUS ( 'not_yet_approved' ) ;
#151 = DIRECTION ( 'NONE',  ( 1.000000000000000000, 0.0000000000000000000, 0.0000000000000000000 ) ) ;
#152 = AXIS2_PLACEMENT_3D ( 'NONE', #69, #171, #191 ) ;
#153 = CONICAL_SURFACE ( 'NONE', #152, 0.3999999999999988565, 0.7853981633974689291 ) ;
#154 = ORIENTED_EDGE ( 'NONE', *, *, #6, .T. ) ;
#155 = EDGE_CURVE ( 'NONE', #16, #16, #130, .T. ) ;
#156 = EDGE_LOOP ( 'NONE', ( #57 ) ) ;
#157 = CYLINDRICAL_SURFACE ( 'NONE', #74, 0.4999999999999979461 ) ;
#158 = DIRECTION ( 'NONE',  ( 3.491481338843133355E-15, -1.224646799147353207E-16, 1.000000000000000000 ) ) ;
#159 = FACE_OUTER_BOUND ( 'NONE', #204, .T. ) ;
#160 = DIRECTION ( 'NONE',  ( 0.0000000000000000000, 1.000000000000000000, 0.0000000000000000000 ) ) ;
#161 = ORIENTED_EDGE ( 'NONE', *, *, #208, .F. ) ;
#162 = AXIS2_PLACEMENT_3D ( 'NONE', #45, #158, #188 ) ;
#163 = CC_DESIGN_DATE_AND_TIME_ASSIGNMENT ( #211, #136, ( #8 ) ) ;
#164 = CALENDAR_DATE ( 2021, 7, 10 ) ;
#165 = CALENDAR_DATE ( 2021, 7, 10 ) ;
#166 = PERSON_AND_ORGANIZATION ( #167, #118 ) ;
#167 = PERSON ( 'UNSPECIFIED', 'UNSPECIFIED', 'UNSPECIFIED', ('UNSPECIFIED'), ('UNSPECIFIED'), ('UNSPECIFIED') ) ;
#168 = ORIENTED_EDGE ( 'NONE', *, *, #155, .T. ) ;
#169 = COORDINATED_UNIVERSAL_TIME_OFFSET ( 1, 0, .AHEAD. ) ;
#170 = PRODUCT_RELATED_PRODUCT_CATEGORY ( 'detail', '', ( #95 ) ) ;
#171 = DIRECTION ( 'NONE',  ( -3.491481338843133355E-15, 1.224646799147353207E-16, -1.000000000000000000 ) ) ;
#172 = LOCAL_TIME ( 15, 47, 34.00000000000000000, #169 ) ;
#173 = DIRECTION ( 'NONE',  ( 0.0000000000000000000, 1.000000000000000000, 0.0000000000000000000 ) ) ;
#174 = CARTESIAN_POINT ( 'NONE',  ( 6.188786233812406212E-16, 0.2949999999999989853, 0.1772538826131316858 ) ) ;
#175 = FACE_OUTER_BOUND ( 'NONE', #72, .T. ) ;
#176 = AXIS2_PLACEMENT_3D ( 'NONE', #12, #142, #81 ) ;
#177 = COORDINATED_UNIVERSAL_TIME_OFFSET ( 1, 0, .AHEAD. ) ;
#178 = AXIS2_PLACEMENT_3D ( 'NONE', #205, #18, #70 ) ;
#179 = APPROVAL_ROLE ( '' ) ;
#180 = CC_DESIGN_SECURITY_CLASSIFICATION ( #8, ( #80 ) ) ;
#181 = ADVANCED_FACE ( 'NONE', ( #48, #64 ), #153, .T. ) ;
#182 = AXIS2_PLACEMENT_3D ( 'NONE', #17, #217, #223 ) ;
#183 = ADVANCED_FACE ( 'NONE', ( #184, #103 ), #44, .T. ) ;
#184 = FACE_BOUND ( 'NONE', #189, .T. ) ;
#185 = DIRECTION ( 'NONE',  ( -3.491481338843133355E-15, 1.224646799147353207E-16, -1.000000000000000000 ) ) ;
#186 = EDGE_LOOP ( 'NONE', ( #22 ) ) ;
#187 = VERTEX_POINT ( 'NONE', #174 ) ;
#188 = DIRECTION ( 'NONE',  ( -4.275831445896958607E-31, -1.000000000000000000, -1.224646799147353207E-16 ) ) ;
#189 = EDGE_LOOP ( 'NONE', ( #161 ) ) ;
#190 = EDGE_CURVE ( 'NONE', #41, #41, #116, .T. ) ;
#191 = DIRECTION ( 'NONE',  ( 0.0000000000000000000, 1.000000000000000000, 0.0000000000000000000 ) ) ;
#192 = PERSON_AND_ORGANIZATION ( #167, #118 ) ;
#193 = CIRCLE ( 'NONE', #216, 0.2949999999999994849 ) ;
#194 = DATE_TIME_ROLE ( 'creation_date' ) ;
#195 = PERSON_AND_ORGANIZATION_ROLE ( 'creator' ) ;
#196 = SECURITY_CLASSIFICATION_LEVEL ( 'unclassified' ) ;
#197 = DIRECTION ( 'NONE',  ( -3.491481338843133355E-15, 1.224646799147353207E-16, -1.000000000000000000 ) ) ;
#198 = FACE_OUTER_BOUND ( 'NONE', #106, .T. ) ;
#199 = PLANE ( 'NONE',  #59 ) ;
#200 = ADVANCED_BREP_SHAPE_REPRESENTATION ( '38070', ( #218, #221, #202 ), #100 ) ;
#201 = AXIS2_PLACEMENT_3D ( 'NONE', #117, #62, #35 ) ;
#202 = AXIS2_PLACEMENT_3D ( 'NONE', #25, #127, #151 ) ;
#203 = DIRECTION ( 'NONE',  ( 3.264288041334309338E-31, 1.000000000000000000, 9.188154004114476111E-17 ) ) ;
#204 = EDGE_LOOP ( 'NONE', ( #38 ) ) ;
#205 = CARTESIAN_POINT ( 'NONE',  ( 1.838289510359357606E-14, -6.447851631690728250E-16, 5.265070415551630134 ) ) ;
#206 = DIRECTION ( 'NONE',  ( -3.491481338843133355E-15, 1.224646799147353207E-16, -1.000000000000000000 ) ) ;
#207 = VERTEX_POINT ( 'NONE', #147 ) ;
#208 = EDGE_CURVE ( 'NONE', #1, #1, #193, .T. ) ;
#209 = DATE_AND_TIME ( #131, #42 ) ;
#210 =( NAMED_UNIT ( * ) PLANE_ANGLE_UNIT ( ) SI_UNIT ( $, .RADIAN. ) );
#211 = DATE_AND_TIME ( #164, #83 ) ;
#212 = EDGE_CURVE ( 'NONE', #207, #207, #104, .T. ) ;
#213 = EDGE_LOOP ( 'NONE', ( #222 ) ) ;
#214 = DIRECTION ( 'NONE',  ( 3.491481338843133355E-15, -1.224646799147353207E-16, 1.000000000000000000 ) ) ;
#215 = CC_DESIGN_PERSON_AND_ORGANIZATION_ASSIGNMENT ( #56, #26, ( #80 ) ) ;
#216 = AXIS2_PLACEMENT_3D ( 'NONE', #46, #84, #160 ) ;
#217 = DIRECTION ( 'NONE',  ( -3.491481338843133355E-15, 1.224646799147353207E-16, -1.000000000000000000 ) ) ;
#218 = MANIFOLD_SOLID_BREP ( 'Corps-Déplacer/Copier1[1]', #29 ) ;
#219 = DIRECTION ( 'NONE',  ( 4.275831445896958607E-31, 1.000000000000000000, 1.224646799147352961E-16 ) ) ;
#220 = FACE_OUTER_BOUND ( 'NONE', #124, .T. ) ;
#221 = MANIFOLD_SOLID_BREP ( 'Corps-Déplacer/Copier1[2]', #99 ) ;
#222 = ORIENTED_EDGE ( 'NONE', *, *, #208, .T. ) ;
#223 = DIRECTION ( 'NONE',  ( 0.0000000000000000000, 1.000000000000000000, 0.0000000000000000000 ) ) ;
ENDSEC;
END-ISO-10303-21;
