ISO-10303-21;
HEADER;
FILE_DESCRIPTION (( 'STEP AP203' ),
    '1' );
FILE_NAME ('38068.step',
    '2021-10-07T13:47:33',
    ( '' ),
    ( '' ),
    'SwSTEP 2.0',
    'SolidWorks 2019',
    '' );
FILE_SCHEMA (( 'CONFIG_CONTROL_DESIGN' ));
ENDSEC;

DATA;
#1 = COORDINATED_UNIVERSAL_TIME_OFFSET ( 1, 0, .AHEAD. ) ;
#2 = FACE_OUTER_BOUND ( 'NONE', #199, .T. ) ;
#3 = DIRECTION ( 'NONE',  ( 0.0000000000000000000, -1.000000000000000000, 0.0000000000000000000 ) ) ;
#4 = DIRECTION ( 'NONE',  ( -3.491481338843133355E-15, 1.224646799147353207E-16, -1.000000000000000000 ) ) ;
#5 = LOCAL_TIME ( 15, 47, 33.00000000000000000, #184 ) ;
#6 = PRODUCT_DEFINITION ( 'UNKNOWN', '', #78, #92 ) ;
#7 = DIRECTION ( 'NONE',  ( -4.275831445896958607E-31, -1.000000000000000000, -1.224646799147353207E-16 ) ) ;
#8 = LOCAL_TIME ( 15, 47, 33.00000000000000000, #206 ) ;
#9 = EDGE_LOOP ( 'NONE', ( #66 ) ) ;
#10 = VERTEX_POINT ( 'NONE', #113 ) ;
#11 = CC_DESIGN_PERSON_AND_ORGANIZATION_ASSIGNMENT ( #171, #15, ( #6 ) ) ;
#12 = CLOSED_SHELL ( 'NONE', ( #39, #93, #112, #214, #76 ) ) ;
#13 =( LENGTH_UNIT ( ) NAMED_UNIT ( * ) SI_UNIT ( .MILLI., .METRE. ) );
#14 = EDGE_LOOP ( 'NONE', ( #46 ) ) ;
#15 = PERSON_AND_ORGANIZATION_ROLE ( 'creator' ) ;
#16 = APPROVAL_ROLE ( '' ) ;
#17 = CONICAL_SURFACE ( 'NONE', #74, 0.2599999999999990097, 1.029744258676649649 ) ;
#18 = PLANE ( 'NONE',  #54 ) ;
#19 = PLANE ( 'NONE',  #213 ) ;
#20 = FACE_OUTER_BOUND ( 'NONE', #97, .T. ) ;
#21 = DIRECTION ( 'NONE',  ( -3.491481338843133355E-15, 1.224646799147353207E-16, -1.000000000000000000 ) ) ;
#22 = CONICAL_SURFACE ( 'NONE', #160, 0.4999999999999970024, 0.2617993877991430240 ) ;
#23 = ORGANIZATION ( 'UNSPECIFIED', 'UNSPECIFIED', '' ) ;
#24 = APPROVAL ( #165, 'UNSPECIFIED' ) ;
#25 = AXIS2_PLACEMENT_3D ( 'NONE', #35, #102, #124 ) ;
#26 = PERSON_AND_ORGANIZATION ( #189, #23 ) ;
#27 = EDGE_LOOP ( 'NONE', ( #220 ) ) ;
#28 = AXIS2_PLACEMENT_3D ( 'NONE', #174, #4, #88 ) ;
#29 = CIRCLE ( 'NONE', #89, 0.3999999999999988565 ) ;
#30 = DATE_AND_TIME ( #154, #5 ) ;
#31 = DATE_AND_TIME ( #185, #8 ) ;
#32 = DIRECTION ( 'NONE',  ( 0.0000000000000000000, 1.000000000000000000, 0.0000000000000000000 ) ) ;
#33 = FACE_OUTER_BOUND ( 'NONE', #181, .T. ) ;
#34 = APPROVAL ( #204, 'UNSPECIFIED' ) ;
#35 = CARTESIAN_POINT ( 'NONE',  ( 5.454523460309235546E-16, -1.913189287947090777E-17, 0.1562237609471667787 ) ) ;
#36 = DIRECTION ( 'NONE',  ( -3.703711431513929149E-31, -1.000000000000000000, -1.042502088928373602E-16 ) ) ;
#37 = CLOSED_SHELL ( 'NONE', ( #130, #106, #100 ) ) ;
#38 = CC_DESIGN_SECURITY_CLASSIFICATION ( #166, ( #78 ) ) ;
#39 = ADVANCED_FACE ( 'NONE', ( #179 ), #95, .F. ) ;
#40 = PRODUCT_DEFINITION_SHAPE ( 'NONE', 'NONE',  #6 ) ;
#41 = EDGE_LOOP ( 'NONE', ( #132 ) ) ;
#42 = APPROVAL_DATE_TIME ( #195, #24 ) ;
#43 =( NAMED_UNIT ( * ) SI_UNIT ( $, .STERADIAN. ) SOLID_ANGLE_UNIT ( ) );
#44 = CARTESIAN_POINT ( 'NONE',  ( 1.709321793543046728E-14, 0.4999999999999963363, 4.895692193816544524 ) ) ;
#45 = PERSON_AND_ORGANIZATION ( #189, #23 ) ;
#46 = ORIENTED_EDGE ( 'NONE', *, *, #192, .F. ) ;
#47 = CIRCLE ( 'NONE', #183, 0.4999999999999989453 ) ;
#48 = APPROVAL_ROLE ( '' ) ;
#49 = FACE_OUTER_BOUND ( 'NONE', #114, .T. ) ;
#50 = APPROVAL_DATE_TIME ( #31, #34 ) ;
#51 = CYLINDRICAL_SURFACE ( 'NONE', #28, 0.4999999999999979461 ) ;
#52 = FACE_BOUND ( 'NONE', #9, .T. ) ;
#53 = FACE_OUTER_BOUND ( 'NONE', #82, .T. ) ;
#54 = AXIS2_PLACEMENT_3D ( 'NONE', #90, #87, #187 ) ;
#55 = CARTESIAN_POINT ( 'NONE',  ( 1.047444401652940007E-13, -3.673940397442059178E-15, 30.00000000000000000 ) ) ;
#56 = PERSON_AND_ORGANIZATION ( #189, #23 ) ;
#57 = COORDINATED_UNIVERSAL_TIME_OFFSET ( 1, 0, .AHEAD. ) ;
#58 = MANIFOLD_SOLID_BREP ( 'Corps-Déplacer/Copier1[1]', #12 ) ;
#59 = ADVANCED_BREP_SHAPE_REPRESENTATION ( '38068', ( #58, #197, #117 ), #221 ) ;
#60 = AXIS2_PLACEMENT_3D ( 'NONE', #72, #73, #143 ) ;
#61 = AXIS2_PLACEMENT_3D ( 'NONE', #63, #140, #121 ) ;
#62 = APPROVAL ( #118, 'UNSPECIFIED' ) ;
#63 = CARTESIAN_POINT ( 'NONE',  ( 1.396592535537253658E-14, -4.898587196589413815E-16, 4.000000000000000888 ) ) ;
#64 = PERSON_AND_ORGANIZATION ( #189, #23 ) ;
#65 = CARTESIAN_POINT ( 'NONE',  ( 1.396592535537253658E-14, 0.2599999999999991762, 4.000000000000000888 ) ) ;
#66 = ORIENTED_EDGE ( 'NONE', *, *, #67, .F. ) ;
#67 = EDGE_CURVE ( 'NONE', #133, #133, #162, .T. ) ;
#68 = APPLICATION_PROTOCOL_DEFINITION ( 'international standard', 'config_control_design', 1994, #104 ) ;
#69 = LOCAL_TIME ( 15, 47, 33.00000000000000000, #57 ) ;
#70 = DATE_TIME_ROLE ( 'creation_date' ) ;
#71 = DIRECTION ( 'NONE',  ( 0.0000000000000000000, 1.000000000000000000, 0.0000000000000000000 ) ) ;
#72 = CARTESIAN_POINT ( 'NONE',  ( 1.396592535537253658E-14, -4.898587196589413815E-16, 4.000000000000000888 ) ) ;
#73 = DIRECTION ( 'NONE',  ( -3.491481338843133355E-15, 1.224646799147353207E-16, -1.000000000000000000 ) ) ;
#74 = AXIS2_PLACEMENT_3D ( 'NONE', #126, #190, #36 ) ;
#75 = DIRECTION ( 'NONE',  ( 3.491481338843133355E-15, -1.224646799147353207E-16, 1.000000000000000000 ) ) ;
#76 = ADVANCED_FACE ( 'NONE', ( #123 ), #18, .F. ) ;
#77 = UNCERTAINTY_MEASURE_WITH_UNIT (LENGTH_MEASURE( 1.000000000000000082E-05 ), #13, 'distance_accuracy_value', 'NONE');
#78 = PRODUCT_DEFINITION_FORMATION_WITH_SPECIFIED_SOURCE ( 'ANY', '', #108, .NOT_KNOWN. ) ;
#79 = DIRECTION ( 'NONE',  ( 3.491481338843133355E-15, -1.224646799147353207E-16, 1.000000000000000000 ) ) ;
#80 = DIRECTION ( 'NONE',  ( 0.0000000000000000000, 0.0000000000000000000, 1.000000000000000000 ) ) ;
#81 = EDGE_LOOP ( 'NONE', ( #116 ) ) ;
#82 = EDGE_LOOP ( 'NONE', ( #119 ) ) ;
#83 = CALENDAR_DATE ( 2021, 7, 10 ) ;
#84 = ORIENTED_EDGE ( 'NONE', *, *, #178, .T. ) ;
#85 = APPROVAL_DATE_TIME ( #30, #62 ) ;
#86 = DIRECTION ( 'NONE',  ( -3.491481338843133355E-15, 1.224646799147353207E-16, -1.000000000000000000 ) ) ;
#87 = DIRECTION ( 'NONE',  ( -3.491481338843133355E-15, 1.224646799147353207E-16, -1.000000000000000000 ) ) ;
#88 = DIRECTION ( 'NONE',  ( 4.275831445896958607E-31, 1.000000000000000000, 1.224646799147352961E-16 ) ) ;
#89 = AXIS2_PLACEMENT_3D ( 'NONE', #55, #205, #32 ) ;
#90 = CARTESIAN_POINT ( 'NONE',  ( 1.047444401652940007E-13, 2.999519565323651582E-33, 30.00000000000000000 ) ) ;
#91 = AXIS2_PLACEMENT_3D ( 'NONE', #173, #86, #155 ) ;
#92 = DESIGN_CONTEXT ( 'detailed design', #129, 'design' ) ;
#93 = ADVANCED_FACE ( 'NONE', ( #52, #156 ), #22, .T. ) ;
#94 = COORDINATED_UNIVERSAL_TIME_OFFSET ( 1, 0, .AHEAD. ) ;
#95 = PLANE ( 'NONE',  #107 ) ;
#96 = EDGE_CURVE ( 'NONE', #10, #10, #193, .T. ) ;
#97 = EDGE_LOOP ( 'NONE', ( #84 ) ) ;
#98 = CARTESIAN_POINT ( 'NONE',  ( 1.047444401652940007E-13, 0.3999999999999951927, 30.00000000000000000 ) ) ;
#99 = DIRECTION ( 'NONE',  ( 1.000000000000000000, 0.0000000000000000000, 0.0000000000000000000 ) ) ;
#100 = ADVANCED_FACE ( 'NONE', ( #186 ), #19, .T. ) ;
#101 = FACE_BOUND ( 'NONE', #222, .T. ) ;
#102 = DIRECTION ( 'NONE',  ( -3.491481338843133355E-15, 1.224646799147353207E-16, -1.000000000000000000 ) ) ;
#103 = FACE_OUTER_BOUND ( 'NONE', #81, .T. ) ;
#104 = APPLICATION_CONTEXT ( 'configuration controlled 3d designs of mechanical parts and assemblies' ) ;
#105 = DIRECTION ( 'NONE',  ( -3.491481338843133355E-15, 1.224646799147353207E-16, -1.000000000000000000 ) ) ;
#106 = ADVANCED_FACE ( 'NONE', ( #103, #49 ), #175, .T. ) ;
#107 = AXIS2_PLACEMENT_3D ( 'NONE', #168, #79, #147 ) ;
#108 = PRODUCT ( '38068', '38068', '', ( #200 ) ) ;
#109 = ORIENTED_EDGE ( 'NONE', *, *, #192, .T. ) ;
#110 = CIRCLE ( 'NONE', #60, 0.2599999999999996758 ) ;
#111 = SHAPE_DEFINITION_REPRESENTATION ( #40, #59 ) ;
#112 = ADVANCED_FACE ( 'NONE', ( #2, #20 ), #51, .T. ) ;
#113 = CARTESIAN_POINT ( 'NONE',  ( 5.454523460309236532E-16, 0.2599999999999990097, 0.1562237609471668065 ) ) ;
#114 = EDGE_LOOP ( 'NONE', ( #151 ) ) ;
#115 = VERTEX_POINT ( 'NONE', #150 ) ;
#116 = ORIENTED_EDGE ( 'NONE', *, *, #96, .F. ) ;
#117 = AXIS2_PLACEMENT_3D ( 'NONE', #219, #80, #99 ) ;
#118 = APPROVAL_STATUS ( 'not_yet_approved' ) ;
#119 = ORIENTED_EDGE ( 'NONE', *, *, #96, .T. ) ;
#120 = APPLICATION_PROTOCOL_DEFINITION ( 'international standard', 'config_control_design', 1994, #129 ) ;
#121 = DIRECTION ( 'NONE',  ( 0.0000000000000000000, 1.000000000000000000, 0.0000000000000000000 ) ) ;
#122 = EDGE_CURVE ( 'NONE', #198, #198, #110, .T. ) ;
#123 = FACE_OUTER_BOUND ( 'NONE', #14, .T. ) ;
#124 = DIRECTION ( 'NONE',  ( 3.703711431513929149E-31, 1.000000000000000000, 1.042502088928373602E-16 ) ) ;
#125 = CC_DESIGN_PERSON_AND_ORGANIZATION_ASSIGNMENT ( #26, #217, ( #78 ) ) ;
#126 = CARTESIAN_POINT ( 'NONE',  ( 5.454523460309235546E-16, -1.913189287947090777E-17, 0.1562237609471667787 ) ) ;
#127 = AXIS2_PLACEMENT_3D ( 'NONE', #208, #105, #159 ) ;
#128 = CC_DESIGN_APPROVAL ( #62, ( #6 ) ) ;
#129 = APPLICATION_CONTEXT ( 'configuration controlled 3d designs of mechanical parts and assemblies' ) ;
#130 = ADVANCED_FACE ( 'NONE', ( #53 ), #17, .T. ) ;
#131 = PERSON_AND_ORGANIZATION_ROLE ( 'design_supplier' ) ;
#132 = ORIENTED_EDGE ( 'NONE', *, *, #122, .F. ) ;
#133 = VERTEX_POINT ( 'NONE', #65 ) ;
#134 = VERTEX_POINT ( 'NONE', #44 ) ;
#135 = ORIENTED_EDGE ( 'NONE', *, *, #67, .T. ) ;
#136 = CC_DESIGN_APPROVAL ( #34, ( #78 ) ) ;
#137 = LOCAL_TIME ( 15, 47, 33.00000000000000000, #94 ) ;
#138 = PERSON_AND_ORGANIZATION ( #189, #23 ) ;
#139 = ORIENTED_EDGE ( 'NONE', *, *, #178, .F. ) ;
#140 = DIRECTION ( 'NONE',  ( -3.491481338843133355E-15, 1.224646799147353207E-16, -1.000000000000000000 ) ) ;
#141 = PERSON_AND_ORGANIZATION_ROLE ( 'classification_officer' ) ;
#142 = CIRCLE ( 'NONE', #146, 0.4999999999999970024 ) ;
#143 = DIRECTION ( 'NONE',  ( 0.0000000000000000000, 1.000000000000000000, 0.0000000000000000000 ) ) ;
#144 = CARTESIAN_POINT ( 'NONE',  ( 1.043952920314096936E-13, -3.661693929450586610E-15, 29.90000000000000213 ) ) ;
#145 = PRODUCT_RELATED_PRODUCT_CATEGORY ( 'detail', '', ( #108 ) ) ;
#146 = AXIS2_PLACEMENT_3D ( 'NONE', #176, #21, #163 ) ;
#147 = DIRECTION ( 'NONE',  ( -4.275831445896958607E-31, -1.000000000000000000, -1.224646799147353207E-16 ) ) ;
#148 = PERSON_AND_ORGANIZATION ( #189, #23 ) ;
#149 = ORIENTED_EDGE ( 'NONE', *, *, #157, .F. ) ;
#150 = CARTESIAN_POINT ( 'NONE',  ( 1.043952920314096936E-13, 0.4999999999999952260, 29.90000000000000213 ) ) ;
#151 = ORIENTED_EDGE ( 'NONE', *, *, #122, .T. ) ;
#152 = CC_DESIGN_DATE_AND_TIME_ASSIGNMENT ( #158, #161, ( #166 ) ) ;
#153 = DATE_AND_TIME ( #83, #212 ) ;
#154 = CALENDAR_DATE ( 2021, 7, 10 ) ;
#155 = DIRECTION ( 'NONE',  ( 0.0000000000000000000, 1.000000000000000000, 0.0000000000000000000 ) ) ;
#156 = FACE_OUTER_BOUND ( 'NONE', #27, .T. ) ;
#157 = EDGE_CURVE ( 'NONE', #134, #134, #142, .T. ) ;
#158 = DATE_AND_TIME ( #216, #69 ) ;
#159 = DIRECTION ( 'NONE',  ( 4.275831445896958607E-31, 1.000000000000000000, 1.224646799147353207E-16 ) ) ;
#160 = AXIS2_PLACEMENT_3D ( 'NONE', #209, #75, #3 ) ;
#161 = DATE_TIME_ROLE ( 'classification_date' ) ;
#162 = CIRCLE ( 'NONE', #61, 0.2599999999999996758 ) ;
#163 = DIRECTION ( 'NONE',  ( 0.0000000000000000000, 1.000000000000000000, 0.0000000000000000000 ) ) ;
#164 = CC_DESIGN_DATE_AND_TIME_ASSIGNMENT ( #153, #70, ( #6 ) ) ;
#165 = APPROVAL_STATUS ( 'not_yet_approved' ) ;
#166 = SECURITY_CLASSIFICATION ( '', '', #196 ) ;
#167 = CALENDAR_DATE ( 2021, 7, 10 ) ;
#168 = CARTESIAN_POINT ( 'NONE',  ( 1.396592535537253342E-14, 1.949687717460404832E-33, 4.000000000000000000 ) ) ;
#169 = CARTESIAN_POINT ( 'NONE',  ( 1.396592535537253658E-14, 0.2599999999999991762, 4.000000000000000888 ) ) ;
#170 = CONICAL_SURFACE ( 'NONE', #91, 0.3999999999999988565, 0.7853981633974689291 ) ;
#171 = PERSON_AND_ORGANIZATION ( #189, #23 ) ;
#172 = PERSON_AND_ORGANIZATION_ROLE ( 'design_owner' ) ;
#173 = CARTESIAN_POINT ( 'NONE',  ( 1.047444401652940007E-13, -3.673940397442059178E-15, 30.00000000000000000 ) ) ;
#174 = CARTESIAN_POINT ( 'NONE',  ( 0.0000000000000000000, 0.0000000000000000000, 0.0000000000000000000 ) ) ;
#175 = CYLINDRICAL_SURFACE ( 'NONE', #127, 0.2599999999999993427 ) ;
#176 = CARTESIAN_POINT ( 'NONE',  ( 1.709321793543046728E-14, -5.995493774768114963E-16, 4.895692193816544524 ) ) ;
#177 = CC_DESIGN_PERSON_AND_ORGANIZATION_ASSIGNMENT ( #45, #172, ( #108 ) ) ;
#178 = EDGE_CURVE ( 'NONE', #115, #115, #47, .T. ) ;
#179 = FACE_OUTER_BOUND ( 'NONE', #202, .T. ) ;
#180 = VERTEX_POINT ( 'NONE', #98 ) ;
#181 = EDGE_LOOP ( 'NONE', ( #139 ) ) ;
#182 =( NAMED_UNIT ( * ) PLANE_ANGLE_UNIT ( ) SI_UNIT ( $, .RADIAN. ) );
#183 = AXIS2_PLACEMENT_3D ( 'NONE', #144, #210, #71 ) ;
#184 = COORDINATED_UNIVERSAL_TIME_OFFSET ( 1, 0, .AHEAD. ) ;
#185 = CALENDAR_DATE ( 2021, 7, 10 ) ;
#186 = FACE_OUTER_BOUND ( 'NONE', #41, .T. ) ;
#187 = DIRECTION ( 'NONE',  ( 4.275831445896958607E-31, 1.000000000000000000, 1.224646799147353207E-16 ) ) ;
#188 = CARTESIAN_POINT ( 'NONE',  ( 1.396592535537253342E-14, 1.949687717460404832E-33, 4.000000000000000000 ) ) ;
#189 = PERSON ( 'UNSPECIFIED', 'UNSPECIFIED', 'UNSPECIFIED', ('UNSPECIFIED'), ('UNSPECIFIED'), ('UNSPECIFIED') ) ;
#190 = DIRECTION ( 'NONE',  ( 3.491481338843133355E-15, -1.224646799147353207E-16, 1.000000000000000000 ) ) ;
#191 = APPROVAL_PERSON_ORGANIZATION ( #194, #24, #215 ) ;
#192 = EDGE_CURVE ( 'NONE', #180, #180, #29, .T. ) ;
#193 = CIRCLE ( 'NONE', #25, 0.2599999999999990097 ) ;
#194 = PERSON_AND_ORGANIZATION ( #189, #23 ) ;
#195 = DATE_AND_TIME ( #167, #137 ) ;
#196 = SECURITY_CLASSIFICATION_LEVEL ( 'unclassified' ) ;
#197 = MANIFOLD_SOLID_BREP ( 'Corps-Déplacer/Copier1[2]', #37 ) ;
#198 = VERTEX_POINT ( 'NONE', #169 ) ;
#199 = EDGE_LOOP ( 'NONE', ( #149 ) ) ;
#200 = MECHANICAL_CONTEXT ( 'NONE', #104, 'mechanical' ) ;
#201 = APPROVAL_PERSON_ORGANIZATION ( #148, #34, #48 ) ;
#202 = EDGE_LOOP ( 'NONE', ( #135 ) ) ;
#203 = APPROVAL_PERSON_ORGANIZATION ( #138, #62, #16 ) ;
#204 = APPROVAL_STATUS ( 'not_yet_approved' ) ;
#205 = DIRECTION ( 'NONE',  ( -3.491481338843133355E-15, 1.224646799147353207E-16, -1.000000000000000000 ) ) ;
#206 = COORDINATED_UNIVERSAL_TIME_OFFSET ( 1, 0, .AHEAD. ) ;
#207 = DIRECTION ( 'NONE',  ( 3.491481338843133355E-15, -1.224646799147353207E-16, 1.000000000000000000 ) ) ;
#208 = CARTESIAN_POINT ( 'NONE',  ( 0.0000000000000000000, 0.0000000000000000000, 0.0000000000000000000 ) ) ;
#209 = CARTESIAN_POINT ( 'NONE',  ( 1.709321793543046728E-14, -5.995493774768114963E-16, 4.895692193816544524 ) ) ;
#210 = DIRECTION ( 'NONE',  ( -3.491481338843133355E-15, 1.224646799147353207E-16, -1.000000000000000000 ) ) ;
#211 = CC_DESIGN_PERSON_AND_ORGANIZATION_ASSIGNMENT ( #64, #131, ( #78 ) ) ;
#212 = LOCAL_TIME ( 15, 47, 33.00000000000000000, #1 ) ;
#213 = AXIS2_PLACEMENT_3D ( 'NONE', #188, #207, #7 ) ;
#214 = ADVANCED_FACE ( 'NONE', ( #33, #101 ), #170, .T. ) ;
#215 = APPROVAL_ROLE ( '' ) ;
#216 = CALENDAR_DATE ( 2021, 7, 10 ) ;
#217 = PERSON_AND_ORGANIZATION_ROLE ( 'creator' ) ;
#218 = CC_DESIGN_PERSON_AND_ORGANIZATION_ASSIGNMENT ( #56, #141, ( #166 ) ) ;
#219 = CARTESIAN_POINT ( 'NONE',  ( 0.0000000000000000000, 0.0000000000000000000, 0.0000000000000000000 ) ) ;
#220 = ORIENTED_EDGE ( 'NONE', *, *, #157, .T. ) ;
#221 =( GEOMETRIC_REPRESENTATION_CONTEXT ( 3 ) GLOBAL_UNCERTAINTY_ASSIGNED_CONTEXT ( ( #77 ) ) GLOBAL_UNIT_ASSIGNED_CONTEXT ( ( #13, #182, #43 ) ) REPRESENTATION_CONTEXT ( 'NONE', 'WORKASPACE' ) );
#222 = EDGE_LOOP ( 'NONE', ( #109 ) ) ;
#223 = CC_DESIGN_APPROVAL ( #24, ( #166 ) ) ;
ENDSEC;
END-ISO-10303-21;
