ISO-10303-21;
HEADER;
FILE_DESCRIPTION (( 'STEP AP203' ),
    '1' );
FILE_NAME ('38066.step',
    '2021-10-07T13:47:32',
    ( '' ),
    ( '' ),
    'SwSTEP 2.0',
    'SolidWorks 2019',
    '' );
FILE_SCHEMA (( 'CONFIG_CONTROL_DESIGN' ));
ENDSEC;

DATA;
#1 = EDGE_CURVE ( 'NONE', #170, #170, #97, .T. ) ;
#2 = CC_DESIGN_APPROVAL ( #155, ( #36 ) ) ;
#3 = APPROVAL ( #71, 'UNSPECIFIED' ) ;
#4 = EDGE_LOOP ( 'NONE', ( #196 ) ) ;
#5 = DIRECTION ( 'NONE',  ( 4.275831445896958607E-31, 1.000000000000000000, 1.224646799147352961E-16 ) ) ;
#6 = FACE_BOUND ( 'NONE', #192, .T. ) ;
#7 = CARTESIAN_POINT ( 'NONE',  ( 1.396592535537253342E-14, 1.912193722893858802E-33, 4.000000000000000000 ) ) ;
#8 = CARTESIAN_POINT ( 'NONE',  ( 1.715836986418167239E-14, -6.018345995146837185E-16, 4.914352447854389183 ) ) ;
#9 = AXIS2_PLACEMENT_3D ( 'NONE', #185, #70, #171 ) ;
#10 = DIRECTION ( 'NONE',  ( 0.0000000000000000000, 1.000000000000000000, 0.0000000000000000000 ) ) ;
#11 = CIRCLE ( 'NONE', #40, 0.2549999999999996159 ) ;
#12 = PRODUCT_RELATED_PRODUCT_CATEGORY ( 'detail', '', ( #53 ) ) ;
#13 = CALENDAR_DATE ( 2021, 7, 10 ) ;
#14 = APPROVAL_STATUS ( 'not_yet_approved' ) ;
#15 = AXIS2_PLACEMENT_3D ( 'NONE', #81, #168, #64 ) ;
#16 = CIRCLE ( 'NONE', #164, 0.2549999999999990608 ) ;
#17 = ADVANCED_FACE ( 'NONE', ( #142 ), #212, .F. ) ;
#18 = APPLICATION_PROTOCOL_DEFINITION ( 'international standard', 'config_control_design', 1994, #101 ) ;
#19 = PRODUCT_DEFINITION_FORMATION_WITH_SPECIFIED_SOURCE ( 'ANY', '', #53, .NOT_KNOWN. ) ;
#20 = APPROVAL ( #14, 'UNSPECIFIED' ) ;
#21 = ORIENTED_EDGE ( 'NONE', *, *, #195, .T. ) ;
#22 = ORIENTED_EDGE ( 'NONE', *, *, #1, .T. ) ;
#23 = EDGE_LOOP ( 'NONE', ( #58 ) ) ;
#24 = ORIENTED_EDGE ( 'NONE', *, *, #115, .F. ) ;
#25 = CARTESIAN_POINT ( 'NONE',  ( 0.0000000000000000000, 0.0000000000000000000, 0.0000000000000000000 ) ) ;
#26 = CARTESIAN_POINT ( 'NONE',  ( 5.349628778380212715E-16, -1.876397186255801044E-17, 0.1532194578520290063 ) ) ;
#27 = DIRECTION ( 'NONE',  ( -3.491481338843133355E-15, 1.224646799147353207E-16, -1.000000000000000000 ) ) ;
#28 = CONICAL_SURFACE ( 'NONE', #125, 0.3999999999999988565, 0.7853981633974689291 ) ;
#29 = DIRECTION ( 'NONE',  ( -3.491481338843133355E-15, 1.224646799147353207E-16, -1.000000000000000000 ) ) ;
#30 = DIRECTION ( 'NONE',  ( 0.0000000000000000000, 1.000000000000000000, 0.0000000000000000000 ) ) ;
#31 = APPLICATION_PROTOCOL_DEFINITION ( 'international standard', 'config_control_design', 1994, #218 ) ;
#32 =( NAMED_UNIT ( * ) PLANE_ANGLE_UNIT ( ) SI_UNIT ( $, .RADIAN. ) );
#33 = CARTESIAN_POINT ( 'NONE',  ( 1.047444401652940007E-13, 0.3999999999999951927, 30.00000000000000000 ) ) ;
#34 = AXIS2_PLACEMENT_3D ( 'NONE', #167, #79, #148 ) ;
#35 = PERSON_AND_ORGANIZATION ( #223, #67 ) ;
#36 = SECURITY_CLASSIFICATION ( '', '', #85 ) ;
#37 = EDGE_LOOP ( 'NONE', ( #141 ) ) ;
#38 = EDGE_LOOP ( 'NONE', ( #191 ) ) ;
#39 = CALENDAR_DATE ( 2021, 7, 10 ) ;
#40 = AXIS2_PLACEMENT_3D ( 'NONE', #94, #144, #96 ) ;
#41 = ORIENTED_EDGE ( 'NONE', *, *, #176, .F. ) ;
#42 = FACE_OUTER_BOUND ( 'NONE', #38, .T. ) ;
#43 = FACE_OUTER_BOUND ( 'NONE', #89, .T. ) ;
#44 = LOCAL_TIME ( 15, 47, 32.00000000000000000, #114 ) ;
#45 = MANIFOLD_SOLID_BREP ( 'Corps-Déplacer/Copier1[1]', #123 ) ;
#46 = FACE_BOUND ( 'NONE', #163, .T. ) ;
#47 = AXIS2_PLACEMENT_3D ( 'NONE', #8, #80, #129 ) ;
#48 = DIRECTION ( 'NONE',  ( -4.275831445896958607E-31, -1.000000000000000000, -1.224646799147353207E-16 ) ) ;
#49 = PERSON_AND_ORGANIZATION ( #223, #67 ) ;
#50 = PERSON_AND_ORGANIZATION ( #223, #67 ) ;
#51 = APPROVAL_STATUS ( 'not_yet_approved' ) ;
#52 = AXIS2_PLACEMENT_3D ( 'NONE', #113, #200, #30 ) ;
#53 = PRODUCT ( '38066', '38066', '', ( #174 ) ) ;
#54 = COORDINATED_UNIVERSAL_TIME_OFFSET ( 1, 0, .AHEAD. ) ;
#55 = LOCAL_TIME ( 15, 47, 32.00000000000000000, #54 ) ;
#56 = APPROVAL_ROLE ( '' ) ;
#57 = CC_DESIGN_APPROVAL ( #20, ( #19 ) ) ;
#58 = ORIENTED_EDGE ( 'NONE', *, *, #169, .T. ) ;
#59 = FACE_OUTER_BOUND ( 'NONE', #4, .T. ) ;
#60 = ADVANCED_FACE ( 'NONE', ( #150 ), #215, .F. ) ;
#61 = DIRECTION ( 'NONE',  ( -3.491481338843133355E-15, 1.224646799147353207E-16, -1.000000000000000000 ) ) ;
#62 = AXIS2_PLACEMENT_3D ( 'NONE', #110, #27, #5 ) ;
#63 = CC_DESIGN_DATE_AND_TIME_ASSIGNMENT ( #152, #220, ( #36 ) ) ;
#64 = DIRECTION ( 'NONE',  ( 0.0000000000000000000, 1.000000000000000000, 0.0000000000000000000 ) ) ;
#65 = FACE_OUTER_BOUND ( 'NONE', #23, .T. ) ;
#66 = PERSON_AND_ORGANIZATION_ROLE ( 'design_owner' ) ;
#67 = ORGANIZATION ( 'UNSPECIFIED', 'UNSPECIFIED', '' ) ;
#68 = DATE_TIME_ROLE ( 'creation_date' ) ;
#69 = CC_DESIGN_PERSON_AND_ORGANIZATION_ASSIGNMENT ( #134, #153, ( #104 ) ) ;
#70 = DIRECTION ( 'NONE',  ( 0.0000000000000000000, 0.0000000000000000000, 1.000000000000000000 ) ) ;
#71 = APPROVAL_STATUS ( 'not_yet_approved' ) ;
#72 = LOCAL_TIME ( 15, 47, 32.00000000000000000, #208 ) ;
#73 = DIRECTION ( 'NONE',  ( -3.491481338843133355E-15, 1.224646799147353207E-16, -1.000000000000000000 ) ) ;
#74 = ADVANCED_FACE ( 'NONE', ( #181, #183 ), #199, .T. ) ;
#75 = ADVANCED_FACE ( 'NONE', ( #59, #6 ), #28, .T. ) ;
#76 = VERTEX_POINT ( 'NONE', #151 ) ;
#77 = CARTESIAN_POINT ( 'NONE',  ( 1.047444401652940007E-13, -3.673940397442059178E-15, 30.00000000000000000 ) ) ;
#78 = DESIGN_CONTEXT ( 'detailed design', #218, 'design' ) ;
#79 = DIRECTION ( 'NONE',  ( 3.491481338843133355E-15, -1.224646799147353207E-16, 1.000000000000000000 ) ) ;
#80 = DIRECTION ( 'NONE',  ( 3.491481338843133355E-15, -1.224646799147353207E-16, 1.000000000000000000 ) ) ;
#81 = CARTESIAN_POINT ( 'NONE',  ( 1.396592535537253342E-14, -4.898587196589412829E-16, 4.000000000000000000 ) ) ;
#82 = CLOSED_SHELL ( 'NONE', ( #133, #74, #137 ) ) ;
#83 = APPROVAL_ROLE ( '' ) ;
#84 = DATE_AND_TIME ( #156, #55 ) ;
#85 = SECURITY_CLASSIFICATION_LEVEL ( 'unclassified' ) ;
#86 = AXIS2_PLACEMENT_3D ( 'NONE', #77, #214, #10 ) ;
#87 = ORIENTED_EDGE ( 'NONE', *, *, #211, .F. ) ;
#88 = DIRECTION ( 'NONE',  ( 0.0000000000000000000, 1.000000000000000000, 0.0000000000000000000 ) ) ;
#89 = EDGE_LOOP ( 'NONE', ( #22 ) ) ;
#90 = ORIENTED_EDGE ( 'NONE', *, *, #169, .F. ) ;
#91 = CARTESIAN_POINT ( 'NONE',  ( 5.349628778380213701E-16, 0.2549999999999990608, 0.1532194578520290340 ) ) ;
#92 = LOCAL_TIME ( 15, 47, 32.00000000000000000, #222 ) ;
#93 = CARTESIAN_POINT ( 'NONE',  ( 5.349628778380212715E-16, -1.876397186255801044E-17, 0.1532194578520290063 ) ) ;
#94 = CARTESIAN_POINT ( 'NONE',  ( 1.396592535537253342E-14, -4.898587196589412829E-16, 4.000000000000000000 ) ) ;
#95 = CARTESIAN_POINT ( 'NONE',  ( 1.047444401652940007E-13, 2.999519565323651582E-33, 30.00000000000000000 ) ) ;
#96 = DIRECTION ( 'NONE',  ( 0.0000000000000000000, 1.000000000000000000, 0.0000000000000000000 ) ) ;
#97 = CIRCLE ( 'NONE', #221, 0.4999999999999989453 ) ;
#98 = PERSON_AND_ORGANIZATION_ROLE ( 'classification_officer' ) ;
#99 = VERTEX_POINT ( 'NONE', #207 ) ;
#100 =( NAMED_UNIT ( * ) SI_UNIT ( $, .STERADIAN. ) SOLID_ANGLE_UNIT ( ) );
#101 = APPLICATION_CONTEXT ( 'configuration controlled 3d designs of mechanical parts and assemblies' ) ;
#102 = PERSON_AND_ORGANIZATION_ROLE ( 'creator' ) ;
#103 = EDGE_LOOP ( 'NONE', ( #41 ) ) ;
#104 = PRODUCT_DEFINITION ( 'UNKNOWN', '', #19, #78 ) ;
#105 = EDGE_LOOP ( 'NONE', ( #179 ) ) ;
#106 = CC_DESIGN_APPROVAL ( #3, ( #104 ) ) ;
#107 = ORIENTED_EDGE ( 'NONE', *, *, #195, .F. ) ;
#108 = CARTESIAN_POINT ( 'NONE',  ( 1.715836986418167239E-14, 0.4999999999999963363, 4.914352447854389183 ) ) ;
#109 = DIRECTION ( 'NONE',  ( -3.491481338843133355E-15, 1.224646799147353207E-16, -1.000000000000000000 ) ) ;
#110 = CARTESIAN_POINT ( 'NONE',  ( 0.0000000000000000000, 0.0000000000000000000, 0.0000000000000000000 ) ) ;
#111 = DIRECTION ( 'NONE',  ( 3.491481338843133355E-15, -1.224646799147353207E-16, 1.000000000000000000 ) ) ;
#112 = AXIS2_PLACEMENT_3D ( 'NONE', #95, #29, #130 ) ;
#113 = CARTESIAN_POINT ( 'NONE',  ( 1.715836986418167239E-14, -6.018345995146837185E-16, 4.914352447854389183 ) ) ;
#114 = COORDINATED_UNIVERSAL_TIME_OFFSET ( 1, 0, .AHEAD. ) ;
#115 = EDGE_CURVE ( 'NONE', #76, #76, #162, .T. ) ;
#116 = DATE_AND_TIME ( #189, #44 ) ;
#117 = CONICAL_SURFACE ( 'NONE', #154, 0.2549999999999990608, 1.029744258676649649 ) ;
#118 = APPROVAL_DATE_TIME ( #116, #20 ) ;
#119 = APPROVAL_DATE_TIME ( #160, #155 ) ;
#120 = CIRCLE ( 'NONE', #52, 0.4999999999999970024 ) ;
#121 = CC_DESIGN_PERSON_AND_ORGANIZATION_ASSIGNMENT ( #35, #102, ( #19 ) ) ;
#122 = AXIS2_PLACEMENT_3D ( 'NONE', #7, #182, #48 ) ;
#123 = CLOSED_SHELL ( 'NONE', ( #17, #147, #198, #75, #60 ) ) ;
#124 = CARTESIAN_POINT ( 'NONE',  ( 1.043952920314096936E-13, -3.661693929450586610E-15, 29.90000000000000213 ) ) ;
#125 = AXIS2_PLACEMENT_3D ( 'NONE', #127, #61, #165 ) ;
#126 = FACE_OUTER_BOUND ( 'NONE', #103, .T. ) ;
#127 = CARTESIAN_POINT ( 'NONE',  ( 1.047444401652940007E-13, -3.673940397442059178E-15, 30.00000000000000000 ) ) ;
#128 = CC_DESIGN_DATE_AND_TIME_ASSIGNMENT ( #204, #68, ( #104 ) ) ;
#129 = DIRECTION ( 'NONE',  ( 0.0000000000000000000, -1.000000000000000000, 0.0000000000000000000 ) ) ;
#130 = DIRECTION ( 'NONE',  ( 4.275831445896958607E-31, 1.000000000000000000, 1.224646799147353207E-16 ) ) ;
#131 = AXIS2_PLACEMENT_3D ( 'NONE', #25, #166, #146 ) ;
#132 = CARTESIAN_POINT ( 'NONE',  ( 1.043952920314096936E-13, 0.4999999999999952260, 29.90000000000000213 ) ) ;
#133 = ADVANCED_FACE ( 'NONE', ( #65 ), #117, .T. ) ;
#134 = PERSON_AND_ORGANIZATION ( #223, #67 ) ;
#135 = APPROVAL_DATE_TIME ( #84, #3 ) ;
#136 = CIRCLE ( 'NONE', #86, 0.3999999999999988565 ) ;
#137 = ADVANCED_FACE ( 'NONE', ( #202 ), #216, .T. ) ;
#138 = CALENDAR_DATE ( 2021, 7, 10 ) ;
#139 = CC_DESIGN_PERSON_AND_ORGANIZATION_ASSIGNMENT ( #175, #186, ( #19 ) ) ;
#140 = PRODUCT_DEFINITION_SHAPE ( 'NONE', 'NONE',  #104 ) ;
#141 = ORIENTED_EDGE ( 'NONE', *, *, #115, .T. ) ;
#142 = FACE_OUTER_BOUND ( 'NONE', #105, .T. ) ;
#143 = CONICAL_SURFACE ( 'NONE', #47, 0.4999999999999970024, 0.2617993877991428020 ) ;
#144 = DIRECTION ( 'NONE',  ( -3.491481338843133355E-15, 1.224646799147353207E-16, -1.000000000000000000 ) ) ;
#145 = UNCERTAINTY_MEASURE_WITH_UNIT (LENGTH_MEASURE( 1.000000000000000082E-05 ), #188, 'distance_accuracy_value', 'NONE');
#146 = DIRECTION ( 'NONE',  ( 4.275831445896957731E-31, 1.000000000000000000, 1.224646799147353207E-16 ) ) ;
#147 = ADVANCED_FACE ( 'NONE', ( #46, #42 ), #143, .T. ) ;
#148 = DIRECTION ( 'NONE',  ( -4.275831445896958607E-31, -1.000000000000000000, -1.224646799147353207E-16 ) ) ;
#149 = APPROVAL_PERSON_ORGANIZATION ( #206, #3, #83 ) ;
#150 = FACE_OUTER_BOUND ( 'NONE', #177, .T. ) ;
#151 = CARTESIAN_POINT ( 'NONE',  ( 1.396592535537253342E-14, 0.2549999999999991718, 4.000000000000000000 ) ) ;
#152 = DATE_AND_TIME ( #13, #219 ) ;
#153 = PERSON_AND_ORGANIZATION_ROLE ( 'creator' ) ;
#154 = AXIS2_PLACEMENT_3D ( 'NONE', #26, #111, #180 ) ;
#155 = APPROVAL ( #51, 'UNSPECIFIED' ) ;
#156 = CALENDAR_DATE ( 2021, 7, 10 ) ;
#157 = PERSON_AND_ORGANIZATION ( #223, #67 ) ;
#158 = CC_DESIGN_PERSON_AND_ORGANIZATION_ASSIGNMENT ( #49, #66, ( #53 ) ) ;
#159 = SHAPE_DEFINITION_REPRESENTATION ( #140, #194 ) ;
#160 = DATE_AND_TIME ( #39, #72 ) ;
#161 = EDGE_LOOP ( 'NONE', ( #24 ) ) ;
#162 = CIRCLE ( 'NONE', #15, 0.2549999999999996159 ) ;
#163 = EDGE_LOOP ( 'NONE', ( #87 ) ) ;
#164 = AXIS2_PLACEMENT_3D ( 'NONE', #93, #109, #201 ) ;
#165 = DIRECTION ( 'NONE',  ( 0.0000000000000000000, 1.000000000000000000, 0.0000000000000000000 ) ) ;
#166 = DIRECTION ( 'NONE',  ( -3.491481338843133355E-15, 1.224646799147353207E-16, -1.000000000000000000 ) ) ;
#167 = CARTESIAN_POINT ( 'NONE',  ( 1.396592535537253342E-14, 1.912193722893858802E-33, 4.000000000000000000 ) ) ;
#168 = DIRECTION ( 'NONE',  ( -3.491481338843133355E-15, 1.224646799147353207E-16, -1.000000000000000000 ) ) ;
#169 = EDGE_CURVE ( 'NONE', #217, #217, #16, .T. ) ;
#170 = VERTEX_POINT ( 'NONE', #132 ) ;
#171 = DIRECTION ( 'NONE',  ( 1.000000000000000000, 0.0000000000000000000, 0.0000000000000000000 ) ) ;
#172 = COORDINATED_UNIVERSAL_TIME_OFFSET ( 1, 0, .AHEAD. ) ;
#173 = APPROVAL_PERSON_ORGANIZATION ( #205, #155, #187 ) ;
#174 = MECHANICAL_CONTEXT ( 'NONE', #101, 'mechanical' ) ;
#175 = PERSON_AND_ORGANIZATION ( #223, #67 ) ;
#176 = EDGE_CURVE ( 'NONE', #203, #203, #120, .T. ) ;
#177 = EDGE_LOOP ( 'NONE', ( #107 ) ) ;
#178 = CC_DESIGN_PERSON_AND_ORGANIZATION_ASSIGNMENT ( #157, #98, ( #36 ) ) ;
#179 = ORIENTED_EDGE ( 'NONE', *, *, #211, .T. ) ;
#180 = DIRECTION ( 'NONE',  ( -3.776333224288711704E-31, -1.000000000000000000, -1.062943306358341608E-16 ) ) ;
#181 = FACE_OUTER_BOUND ( 'NONE', #210, .T. ) ;
#182 = DIRECTION ( 'NONE',  ( 3.491481338843133355E-15, -1.224646799147353207E-16, 1.000000000000000000 ) ) ;
#183 = FACE_OUTER_BOUND ( 'NONE', #37, .T. ) ;
#184 = CYLINDRICAL_SURFACE ( 'NONE', #62, 0.4999999999999979461 ) ;
#185 = CARTESIAN_POINT ( 'NONE',  ( 0.0000000000000000000, 0.0000000000000000000, 0.0000000000000000000 ) ) ;
#186 = PERSON_AND_ORGANIZATION_ROLE ( 'design_supplier' ) ;
#187 = APPROVAL_ROLE ( '' ) ;
#188 =( LENGTH_UNIT ( ) NAMED_UNIT ( * ) SI_UNIT ( .MILLI., .METRE. ) );
#189 = CALENDAR_DATE ( 2021, 7, 10 ) ;
#190 =( GEOMETRIC_REPRESENTATION_CONTEXT ( 3 ) GLOBAL_UNCERTAINTY_ASSIGNED_CONTEXT ( ( #145 ) ) GLOBAL_UNIT_ASSIGNED_CONTEXT ( ( #188, #32, #100 ) ) REPRESENTATION_CONTEXT ( 'NONE', 'WORKASPACE' ) );
#191 = ORIENTED_EDGE ( 'NONE', *, *, #176, .T. ) ;
#192 = EDGE_LOOP ( 'NONE', ( #21 ) ) ;
#193 = MANIFOLD_SOLID_BREP ( 'Corps-Déplacer/Copier1[2]', #82 ) ;
#194 = ADVANCED_BREP_SHAPE_REPRESENTATION ( '38066', ( #45, #193, #9 ), #190 ) ;
#195 = EDGE_CURVE ( 'NONE', #213, #213, #136, .T. ) ;
#196 = ORIENTED_EDGE ( 'NONE', *, *, #1, .F. ) ;
#197 = CC_DESIGN_SECURITY_CLASSIFICATION ( #36, ( #19 ) ) ;
#198 = ADVANCED_FACE ( 'NONE', ( #126, #43 ), #184, .T. ) ;
#199 = CYLINDRICAL_SURFACE ( 'NONE', #131, 0.2549999999999993938 ) ;
#200 = DIRECTION ( 'NONE',  ( -3.491481338843133355E-15, 1.224646799147353207E-16, -1.000000000000000000 ) ) ;
#201 = DIRECTION ( 'NONE',  ( 3.776333224288711704E-31, 1.000000000000000000, 1.062943306358341608E-16 ) ) ;
#202 = FACE_OUTER_BOUND ( 'NONE', #161, .T. ) ;
#203 = VERTEX_POINT ( 'NONE', #108 ) ;
#204 = DATE_AND_TIME ( #138, #92 ) ;
#205 = PERSON_AND_ORGANIZATION ( #223, #67 ) ;
#206 = PERSON_AND_ORGANIZATION ( #223, #67 ) ;
#207 = CARTESIAN_POINT ( 'NONE',  ( 1.396592535537253342E-14, 0.2549999999999991718, 4.000000000000000000 ) ) ;
#208 = COORDINATED_UNIVERSAL_TIME_OFFSET ( 1, 0, .AHEAD. ) ;
#209 = APPROVAL_PERSON_ORGANIZATION ( #50, #20, #56 ) ;
#210 = EDGE_LOOP ( 'NONE', ( #90 ) ) ;
#211 = EDGE_CURVE ( 'NONE', #99, #99, #11, .T. ) ;
#212 = PLANE ( 'NONE',  #34 ) ;
#213 = VERTEX_POINT ( 'NONE', #33 ) ;
#214 = DIRECTION ( 'NONE',  ( -3.491481338843133355E-15, 1.224646799147353207E-16, -1.000000000000000000 ) ) ;
#215 = PLANE ( 'NONE',  #112 ) ;
#216 = PLANE ( 'NONE',  #122 ) ;
#217 = VERTEX_POINT ( 'NONE', #91 ) ;
#218 = APPLICATION_CONTEXT ( 'configuration controlled 3d designs of mechanical parts and assemblies' ) ;
#219 = LOCAL_TIME ( 15, 47, 32.00000000000000000, #172 ) ;
#220 = DATE_TIME_ROLE ( 'classification_date' ) ;
#221 = AXIS2_PLACEMENT_3D ( 'NONE', #124, #73, #88 ) ;
#222 = COORDINATED_UNIVERSAL_TIME_OFFSET ( 1, 0, .AHEAD. ) ;
#223 = PERSON ( 'UNSPECIFIED', 'UNSPECIFIED', 'UNSPECIFIED', ('UNSPECIFIED'), ('UNSPECIFIED'), ('UNSPECIFIED') ) ;
ENDSEC;
END-ISO-10303-21;
