ISO-10303-21;
HEADER;
FILE_DESCRIPTION (( 'STEP AP203' ),
    '1' );
FILE_NAME ('38065.step',
    '2021-10-07T13:47:31',
    ( '' ),
    ( '' ),
    'SwSTEP 2.0',
    'SolidWorks 2019',
    '' );
FILE_SCHEMA (( 'CONFIG_CONTROL_DESIGN' ));
ENDSEC;

DATA;
#1 = CARTESIAN_POINT ( 'NONE',  ( 1.047444401652940007E-13, 2.999519565323651582E-33, 30.00000000000000000 ) ) ;
#2 = DIRECTION ( 'NONE',  ( -3.491481338843133355E-15, 1.224646799147353207E-16, -1.000000000000000000 ) ) ;
#3 = PRODUCT ( '38065', '38065', '', ( #10 ) ) ;
#4 = CARTESIAN_POINT ( 'NONE',  ( 1.722352179293288382E-14, -6.041198215525561379E-16, 4.933012701892234730 ) ) ;
#5 = DIRECTION ( 'NONE',  ( 3.491481338843133355E-15, -1.224646799147353207E-16, 1.000000000000000000 ) ) ;
#6 = APPROVAL_PERSON_ORGANIZATION ( #148, #7, #44 ) ;
#7 = APPROVAL ( #147, 'UNSPECIFIED' ) ;
#8 = DIRECTION ( 'NONE',  ( -3.851859888774486595E-31, -1.000000000000000000, -1.084202172485508625E-16 ) ) ;
#9 =( NAMED_UNIT ( * ) PLANE_ANGLE_UNIT ( ) SI_UNIT ( $, .RADIAN. ) );
#10 = MECHANICAL_CONTEXT ( 'NONE', #153, 'mechanical' ) ;
#11 = ADVANCED_FACE ( 'NONE', ( #149, #82 ), #220, .T. ) ;
#12 =( LENGTH_UNIT ( ) NAMED_UNIT ( * ) SI_UNIT ( .MILLI., .METRE. ) );
#13 =( NAMED_UNIT ( * ) SI_UNIT ( $, .STERADIAN. ) SOLID_ANGLE_UNIT ( ) );
#14 = CONICAL_SURFACE ( 'NONE', #107, 0.2499999999999990286, 1.029744258676649649 ) ;
#15 = EDGE_LOOP ( 'NONE', ( #81 ) ) ;
#16 = DESIGN_CONTEXT ( 'detailed design', #67, 'design' ) ;
#17 = ORIENTED_EDGE ( 'NONE', *, *, #138, .F. ) ;
#18 = EDGE_LOOP ( 'NONE', ( #104 ) ) ;
#19 = ADVANCED_FACE ( 'NONE', ( #118, #122 ), #222, .T. ) ;
#20 = APPROVAL_DATE_TIME ( #151, #200 ) ;
#21 = DIRECTION ( 'NONE',  ( -4.275831445896958607E-31, -1.000000000000000000, -1.224646799147353207E-16 ) ) ;
#22 = ADVANCED_FACE ( 'NONE', ( #142 ), #14, .T. ) ;
#23 = CARTESIAN_POINT ( 'NONE',  ( 5.244734096451187911E-16, -1.839605084564510694E-17, 0.1502151547568911505 ) ) ;
#24 = LOCAL_TIME ( 15, 47, 31.00000000000000000, #29 ) ;
#25 = FACE_OUTER_BOUND ( 'NONE', #120, .T. ) ;
#26 = FACE_OUTER_BOUND ( 'NONE', #18, .T. ) ;
#27 = ADVANCED_FACE ( 'NONE', ( #25, #141 ), #189, .T. ) ;
#28 = DIRECTION ( 'NONE',  ( 0.0000000000000000000, 1.000000000000000000, 0.0000000000000000000 ) ) ;
#29 = COORDINATED_UNIVERSAL_TIME_OFFSET ( 1, 0, .AHEAD. ) ;
#30 = EDGE_CURVE ( 'NONE', #57, #57, #214, .T. ) ;
#31 = CC_DESIGN_SECURITY_CLASSIFICATION ( #164, ( #223 ) ) ;
#32 = PERSON_AND_ORGANIZATION ( #90, #184 ) ;
#33 = AXIS2_PLACEMENT_3D ( 'NONE', #4, #207, #106 ) ;
#34 = EDGE_LOOP ( 'NONE', ( #205 ) ) ;
#35 = EDGE_LOOP ( 'NONE', ( #204 ) ) ;
#36 = AXIS2_PLACEMENT_3D ( 'NONE', #1, #154, #140 ) ;
#37 = CARTESIAN_POINT ( 'NONE',  ( 1.396592535537253342E-14, 1.874699728327311404E-33, 4.000000000000000000 ) ) ;
#38 = CARTESIAN_POINT ( 'NONE',  ( 1.043952920314096936E-13, 0.4999999999999952260, 29.90000000000000213 ) ) ;
#39 = LOCAL_TIME ( 15, 47, 31.00000000000000000, #196 ) ;
#40 = CARTESIAN_POINT ( 'NONE',  ( 5.244734096451187911E-16, -1.839605084564510694E-17, 0.1502151547568911505 ) ) ;
#41 = ADVANCED_FACE ( 'NONE', ( #26, #70 ), #156, .T. ) ;
#42 = CARTESIAN_POINT ( 'NONE',  ( 1.396592535537253342E-14, 1.874699728327311404E-33, 4.000000000000000000 ) ) ;
#43 = CC_DESIGN_DATE_AND_TIME_ASSIGNMENT ( #195, #128, ( #94 ) ) ;
#44 = APPROVAL_ROLE ( '' ) ;
#45 = MANIFOLD_SOLID_BREP ( 'Corps-Déplacer/Copier1[2]', #201 ) ;
#46 = APPLICATION_PROTOCOL_DEFINITION ( 'international standard', 'config_control_design', 1994, #67 ) ;
#47 = EDGE_LOOP ( 'NONE', ( #51 ) ) ;
#48 = LOCAL_TIME ( 15, 47, 31.00000000000000000, #215 ) ;
#49 = DIRECTION ( 'NONE',  ( 4.275831445896958607E-31, 1.000000000000000000, 1.224646799147352961E-16 ) ) ;
#50 = EDGE_CURVE ( 'NONE', #123, #123, #197, .T. ) ;
#51 = ORIENTED_EDGE ( 'NONE', *, *, #60, .T. ) ;
#52 = AXIS2_PLACEMENT_3D ( 'NONE', #42, #157, #108 ) ;
#53 = EDGE_LOOP ( 'NONE', ( #85 ) ) ;
#54 = DIRECTION ( 'NONE',  ( -3.491481338843133355E-15, 1.224646799147353207E-16, -1.000000000000000000 ) ) ;
#55 = DIRECTION ( 'NONE',  ( -3.491481338843133355E-15, 1.224646799147353207E-16, -1.000000000000000000 ) ) ;
#56 = VERTEX_POINT ( 'NONE', #125 ) ;
#57 = VERTEX_POINT ( 'NONE', #210 ) ;
#58 = DIRECTION ( 'NONE',  ( 0.0000000000000000000, 0.0000000000000000000, 1.000000000000000000 ) ) ;
#59 = AXIS2_PLACEMENT_3D ( 'NONE', #23, #2, #74 ) ;
#60 = EDGE_CURVE ( 'NONE', #188, #188, #100, .T. ) ;
#61 = PRODUCT_DEFINITION_SHAPE ( 'NONE', 'NONE',  #94 ) ;
#62 = CALENDAR_DATE ( 2021, 7, 10 ) ;
#63 = APPROVAL_DATE_TIME ( #111, #7 ) ;
#64 = COORDINATED_UNIVERSAL_TIME_OFFSET ( 1, 0, .AHEAD. ) ;
#65 = CC_DESIGN_PERSON_AND_ORGANIZATION_ASSIGNMENT ( #213, #146, ( #94 ) ) ;
#66 = CIRCLE ( 'NONE', #175, 0.4999999999999970024 ) ;
#67 = APPLICATION_CONTEXT ( 'configuration controlled 3d designs of mechanical parts and assemblies' ) ;
#68 = EDGE_LOOP ( 'NONE', ( #182 ) ) ;
#69 = FACE_OUTER_BOUND ( 'NONE', #34, .T. ) ;
#70 = FACE_OUTER_BOUND ( 'NONE', #103, .T. ) ;
#71 = DIRECTION ( 'NONE',  ( 0.0000000000000000000, 1.000000000000000000, 0.0000000000000000000 ) ) ;
#72 = CIRCLE ( 'NONE', #59, 0.2499999999999990286 ) ;
#73 = DIRECTION ( 'NONE',  ( -3.491481338843133355E-15, 1.224646799147353207E-16, -1.000000000000000000 ) ) ;
#74 = DIRECTION ( 'NONE',  ( 3.851859888774486595E-31, 1.000000000000000000, 1.084202172485508625E-16 ) ) ;
#75 = DIRECTION ( 'NONE',  ( 1.000000000000000000, 0.0000000000000000000, 0.0000000000000000000 ) ) ;
#76 = DATE_AND_TIME ( #62, #87 ) ;
#77 = CLOSED_SHELL ( 'NONE', ( #98, #19, #11, #27, #101 ) ) ;
#78 = PERSON_AND_ORGANIZATION ( #90, #184 ) ;
#79 = APPROVAL_STATUS ( 'not_yet_approved' ) ;
#80 = APPROVAL_ROLE ( '' ) ;
#81 = ORIENTED_EDGE ( 'NONE', *, *, #50, .F. ) ;
#82 = FACE_OUTER_BOUND ( 'NONE', #47, .T. ) ;
#83 = AXIS2_PLACEMENT_3D ( 'NONE', #212, #93, #71 ) ;
#84 = CALENDAR_DATE ( 2021, 7, 10 ) ;
#85 = ORIENTED_EDGE ( 'NONE', *, *, #30, .T. ) ;
#86 = DIRECTION ( 'NONE',  ( 4.275831445896959482E-31, 1.000000000000000000, 1.224646799147353207E-16 ) ) ;
#87 = LOCAL_TIME ( 15, 47, 31.00000000000000000, #199 ) ;
#88 = CARTESIAN_POINT ( 'NONE',  ( 1.722352179293288382E-14, -6.041198215525561379E-16, 4.933012701892234730 ) ) ;
#89 = CARTESIAN_POINT ( 'NONE',  ( 1.047444401652940007E-13, -3.673940397442059178E-15, 30.00000000000000000 ) ) ;
#90 = PERSON ( 'UNSPECIFIED', 'UNSPECIFIED', 'UNSPECIFIED', ('UNSPECIFIED'), ('UNSPECIFIED'), ('UNSPECIFIED') ) ;
#91 = PLANE ( 'NONE',  #52 ) ;
#92 = AXIS2_PLACEMENT_3D ( 'NONE', #137, #54, #192 ) ;
#93 = DIRECTION ( 'NONE',  ( -3.491481338843133355E-15, 1.224646799147353207E-16, -1.000000000000000000 ) ) ;
#94 = PRODUCT_DEFINITION ( 'UNKNOWN', '', #223, #16 ) ;
#95 = CALENDAR_DATE ( 2021, 7, 10 ) ;
#96 = CC_DESIGN_APPROVAL ( #152, ( #94 ) ) ;
#97 = PERSON_AND_ORGANIZATION ( #90, #184 ) ;
#98 = ADVANCED_FACE ( 'NONE', ( #69 ), #91, .F. ) ;
#99 = PERSON_AND_ORGANIZATION_ROLE ( 'classification_officer' ) ;
#100 = CIRCLE ( 'NONE', #171, 0.4999999999999989453 ) ;
#101 = ADVANCED_FACE ( 'NONE', ( #126 ), #158, .F. ) ;
#102 = UNCERTAINTY_MEASURE_WITH_UNIT (LENGTH_MEASURE( 1.000000000000000082E-05 ), #12, 'distance_accuracy_value', 'NONE');
#103 = EDGE_LOOP ( 'NONE', ( #167 ) ) ;
#104 = ORIENTED_EDGE ( 'NONE', *, *, #168, .F. ) ;
#105 = AXIS2_PLACEMENT_3D ( 'NONE', #150, #221, #49 ) ;
#106 = DIRECTION ( 'NONE',  ( 0.0000000000000000000, -1.000000000000000000, 0.0000000000000000000 ) ) ;
#107 = AXIS2_PLACEMENT_3D ( 'NONE', #40, #5, #8 ) ;
#108 = DIRECTION ( 'NONE',  ( -4.275831445896958607E-31, -1.000000000000000000, -1.224646799147353207E-16 ) ) ;
#109 = DIRECTION ( 'NONE',  ( 0.0000000000000000000, 1.000000000000000000, 0.0000000000000000000 ) ) ;
#110 = CARTESIAN_POINT ( 'NONE',  ( 0.0000000000000000000, 0.0000000000000000000, 0.0000000000000000000 ) ) ;
#111 = DATE_AND_TIME ( #217, #117 ) ;
#112 = DATE_TIME_ROLE ( 'classification_date' ) ;
#113 = VERTEX_POINT ( 'NONE', #216 ) ;
#114 = ADVANCED_FACE ( 'NONE', ( #172 ), #187, .T. ) ;
#115 = APPLICATION_PROTOCOL_DEFINITION ( 'international standard', 'config_control_design', 1994, #153 ) ;
#116 = CALENDAR_DATE ( 2021, 7, 10 ) ;
#117 = LOCAL_TIME ( 15, 47, 31.00000000000000000, #64 ) ;
#118 = FACE_BOUND ( 'NONE', #15, .T. ) ;
#119 = MANIFOLD_SOLID_BREP ( 'Corps-Déplacer/Copier1[1]', #77 ) ;
#120 = EDGE_LOOP ( 'NONE', ( #202 ) ) ;
#121 = CIRCLE ( 'NONE', #83, 0.2499999999999995282 ) ;
#122 = FACE_OUTER_BOUND ( 'NONE', #135, .T. ) ;
#123 = VERTEX_POINT ( 'NONE', #127 ) ;
#124 = AXIS2_PLACEMENT_3D ( 'NONE', #169, #211, #28 ) ;
#125 = CARTESIAN_POINT ( 'NONE',  ( 1.722352179293288382E-14, 0.4999999999999963363, 4.933012701892234730 ) ) ;
#126 = FACE_OUTER_BOUND ( 'NONE', #134, .T. ) ;
#127 = CARTESIAN_POINT ( 'NONE',  ( 1.396592535537253342E-14, 0.2499999999999990286, 4.000000000000000000 ) ) ;
#128 = DATE_TIME_ROLE ( 'creation_date' ) ;
#129 = CC_DESIGN_DATE_AND_TIME_ASSIGNMENT ( #194, #112, ( #164 ) ) ;
#130 = PERSON_AND_ORGANIZATION_ROLE ( 'creator' ) ;
#131 = CC_DESIGN_APPROVAL ( #7, ( #223 ) ) ;
#132 = CC_DESIGN_PERSON_AND_ORGANIZATION_ASSIGNMENT ( #32, #99, ( #164 ) ) ;
#133 = CC_DESIGN_APPROVAL ( #200, ( #164 ) ) ;
#134 = EDGE_LOOP ( 'NONE', ( #166 ) ) ;
#135 = EDGE_LOOP ( 'NONE', ( #183 ) ) ;
#136 = APPROVAL_PERSON_ORGANIZATION ( #78, #152, #80 ) ;
#137 = CARTESIAN_POINT ( 'NONE',  ( 1.047444401652940007E-13, -3.673940397442059178E-15, 30.00000000000000000 ) ) ;
#138 = EDGE_CURVE ( 'NONE', #56, #56, #66, .T. ) ;
#139 = DIRECTION ( 'NONE',  ( 0.0000000000000000000, 1.000000000000000000, 0.0000000000000000000 ) ) ;
#140 = DIRECTION ( 'NONE',  ( 4.275831445896958607E-31, 1.000000000000000000, 1.224646799147353207E-16 ) ) ;
#141 = FACE_BOUND ( 'NONE', #53, .T. ) ;
#142 = FACE_OUTER_BOUND ( 'NONE', #35, .T. ) ;
#143 = APPROVAL_DATE_TIME ( #76, #152 ) ;
#144 = APPROVAL_PERSON_ORGANIZATION ( #177, #200, #145 ) ;
#145 = APPROVAL_ROLE ( '' ) ;
#146 = PERSON_AND_ORGANIZATION_ROLE ( 'creator' ) ;
#147 = APPROVAL_STATUS ( 'not_yet_approved' ) ;
#148 = PERSON_AND_ORGANIZATION ( #90, #184 ) ;
#149 = FACE_OUTER_BOUND ( 'NONE', #186, .T. ) ;
#150 = CARTESIAN_POINT ( 'NONE',  ( 0.0000000000000000000, 0.0000000000000000000, 0.0000000000000000000 ) ) ;
#151 = DATE_AND_TIME ( #84, #48 ) ;
#152 = APPROVAL ( #79, 'UNSPECIFIED' ) ;
#153 = APPLICATION_CONTEXT ( 'configuration controlled 3d designs of mechanical parts and assemblies' ) ;
#154 = DIRECTION ( 'NONE',  ( -3.491481338843133355E-15, 1.224646799147353207E-16, -1.000000000000000000 ) ) ;
#155 = AXIS2_PLACEMENT_3D ( 'NONE', #178, #58, #75 ) ;
#156 = CYLINDRICAL_SURFACE ( 'NONE', #206, 0.2499999999999992506 ) ;
#157 = DIRECTION ( 'NONE',  ( 3.491481338843133355E-15, -1.224646799147353207E-16, 1.000000000000000000 ) ) ;
#158 = PLANE ( 'NONE',  #36 ) ;
#159 = DIRECTION ( 'NONE',  ( 0.0000000000000000000, 1.000000000000000000, 0.0000000000000000000 ) ) ;
#160 = APPROVAL_STATUS ( 'not_yet_approved' ) ;
#161 = AXIS2_PLACEMENT_3D ( 'NONE', #89, #73, #139 ) ;
#162 = PERSON_AND_ORGANIZATION_ROLE ( 'design_owner' ) ;
#163 = SECURITY_CLASSIFICATION_LEVEL ( 'unclassified' ) ;
#164 = SECURITY_CLASSIFICATION ( '', '', #163 ) ;
#165 = SHAPE_DEFINITION_REPRESENTATION ( #61, #179 ) ;
#166 = ORIENTED_EDGE ( 'NONE', *, *, #30, .F. ) ;
#167 = ORIENTED_EDGE ( 'NONE', *, *, #219, .T. ) ;
#168 = EDGE_CURVE ( 'NONE', #191, #191, #72, .T. ) ;
#169 = CARTESIAN_POINT ( 'NONE',  ( 1.396592535537253342E-14, -4.898587196589412829E-16, 4.000000000000000000 ) ) ;
#170 = CARTESIAN_POINT ( 'NONE',  ( 1.043952920314096936E-13, -3.661693929450586610E-15, 29.90000000000000213 ) ) ;
#171 = AXIS2_PLACEMENT_3D ( 'NONE', #170, #208, #109 ) ;
#172 = FACE_OUTER_BOUND ( 'NONE', #68, .T. ) ;
#173 = CARTESIAN_POINT ( 'NONE',  ( 5.244734096451188897E-16, 0.2499999999999990286, 0.1502151547568911782 ) ) ;
#174 = DIRECTION ( 'NONE',  ( 3.491481338843133355E-15, -1.224646799147353207E-16, 1.000000000000000000 ) ) ;
#175 = AXIS2_PLACEMENT_3D ( 'NONE', #88, #55, #159 ) ;
#176 = PERSON_AND_ORGANIZATION ( #90, #184 ) ;
#177 = PERSON_AND_ORGANIZATION ( #90, #184 ) ;
#178 = CARTESIAN_POINT ( 'NONE',  ( 0.0000000000000000000, 0.0000000000000000000, 0.0000000000000000000 ) ) ;
#179 = ADVANCED_BREP_SHAPE_REPRESENTATION ( '38065', ( #119, #45, #155 ), #181 ) ;
#180 = PERSON_AND_ORGANIZATION_ROLE ( 'design_supplier' ) ;
#181 =( GEOMETRIC_REPRESENTATION_CONTEXT ( 3 ) GLOBAL_UNCERTAINTY_ASSIGNED_CONTEXT ( ( #102 ) ) GLOBAL_UNIT_ASSIGNED_CONTEXT ( ( #12, #9, #13 ) ) REPRESENTATION_CONTEXT ( 'NONE', 'WORKASPACE' ) );
#182 = ORIENTED_EDGE ( 'NONE', *, *, #219, .F. ) ;
#183 = ORIENTED_EDGE ( 'NONE', *, *, #138, .T. ) ;
#184 = ORGANIZATION ( 'UNSPECIFIED', 'UNSPECIFIED', '' ) ;
#185 = CC_DESIGN_PERSON_AND_ORGANIZATION_ASSIGNMENT ( #198, #180, ( #223 ) ) ;
#186 = EDGE_LOOP ( 'NONE', ( #17 ) ) ;
#187 = PLANE ( 'NONE',  #218 ) ;
#188 = VERTEX_POINT ( 'NONE', #38 ) ;
#189 = CONICAL_SURFACE ( 'NONE', #92, 0.3999999999999988565, 0.7853981633974689291 ) ;
#190 = CC_DESIGN_PERSON_AND_ORGANIZATION_ASSIGNMENT ( #97, #162, ( #3 ) ) ;
#191 = VERTEX_POINT ( 'NONE', #173 ) ;
#192 = DIRECTION ( 'NONE',  ( 0.0000000000000000000, 1.000000000000000000, 0.0000000000000000000 ) ) ;
#193 = DIRECTION ( 'NONE',  ( -3.491481338843133355E-15, 1.224646799147353207E-16, -1.000000000000000000 ) ) ;
#194 = DATE_AND_TIME ( #95, #24 ) ;
#195 = DATE_AND_TIME ( #116, #39 ) ;
#196 = COORDINATED_UNIVERSAL_TIME_OFFSET ( 1, 0, .AHEAD. ) ;
#197 = CIRCLE ( 'NONE', #124, 0.2499999999999995282 ) ;
#198 = PERSON_AND_ORGANIZATION ( #90, #184 ) ;
#199 = COORDINATED_UNIVERSAL_TIME_OFFSET ( 1, 0, .AHEAD. ) ;
#200 = APPROVAL ( #160, 'UNSPECIFIED' ) ;
#201 = CLOSED_SHELL ( 'NONE', ( #22, #41, #114 ) ) ;
#202 = ORIENTED_EDGE ( 'NONE', *, *, #60, .F. ) ;
#203 = CC_DESIGN_PERSON_AND_ORGANIZATION_ASSIGNMENT ( #176, #130, ( #223 ) ) ;
#204 = ORIENTED_EDGE ( 'NONE', *, *, #168, .T. ) ;
#205 = ORIENTED_EDGE ( 'NONE', *, *, #50, .T. ) ;
#206 = AXIS2_PLACEMENT_3D ( 'NONE', #110, #193, #86 ) ;
#207 = DIRECTION ( 'NONE',  ( 3.491481338843133355E-15, -1.224646799147353207E-16, 1.000000000000000000 ) ) ;
#208 = DIRECTION ( 'NONE',  ( -3.491481338843133355E-15, 1.224646799147353207E-16, -1.000000000000000000 ) ) ;
#209 = PRODUCT_RELATED_PRODUCT_CATEGORY ( 'detail', '', ( #3 ) ) ;
#210 = CARTESIAN_POINT ( 'NONE',  ( 1.047444401652940007E-13, 0.3999999999999951927, 30.00000000000000000 ) ) ;
#211 = DIRECTION ( 'NONE',  ( -3.491481338843133355E-15, 1.224646799147353207E-16, -1.000000000000000000 ) ) ;
#212 = CARTESIAN_POINT ( 'NONE',  ( 1.396592535537253342E-14, -4.898587196589412829E-16, 4.000000000000000000 ) ) ;
#213 = PERSON_AND_ORGANIZATION ( #90, #184 ) ;
#214 = CIRCLE ( 'NONE', #161, 0.3999999999999988565 ) ;
#215 = COORDINATED_UNIVERSAL_TIME_OFFSET ( 1, 0, .AHEAD. ) ;
#216 = CARTESIAN_POINT ( 'NONE',  ( 1.396592535537253342E-14, 0.2499999999999990286, 4.000000000000000000 ) ) ;
#217 = CALENDAR_DATE ( 2021, 7, 10 ) ;
#218 = AXIS2_PLACEMENT_3D ( 'NONE', #37, #174, #21 ) ;
#219 = EDGE_CURVE ( 'NONE', #113, #113, #121, .T. ) ;
#220 = CYLINDRICAL_SURFACE ( 'NONE', #105, 0.4999999999999979461 ) ;
#221 = DIRECTION ( 'NONE',  ( -3.491481338843133355E-15, 1.224646799147353207E-16, -1.000000000000000000 ) ) ;
#222 = CONICAL_SURFACE ( 'NONE', #33, 0.4999999999999970024, 0.2617993877991427465 ) ;
#223 = PRODUCT_DEFINITION_FORMATION_WITH_SPECIFIED_SOURCE ( 'ANY', '', #3, .NOT_KNOWN. ) ;
ENDSEC;
END-ISO-10303-21;
