ISO-10303-21;
HEADER;
FILE_DESCRIPTION (( 'STEP AP203' ),
    '1' );
FILE_NAME ('38063.step',
    '2021-10-07T13:47:31',
    ( '' ),
    ( '' ),
    'SwSTEP 2.0',
    'SolidWorks 2019',
    '' );
FILE_SCHEMA (( 'CONFIG_CONTROL_DESIGN' ));
ENDSEC;

DATA;
#1 = FACE_OUTER_BOUND ( 'NONE', #98, .T. ) ;
#2 = LOCAL_TIME ( 15, 47, 31.00000000000000000, #222 ) ;
#3 = AXIS2_PLACEMENT_3D ( 'NONE', #57, #212, #163 ) ;
#4 = ORIENTED_EDGE ( 'NONE', *, *, #67, .T. ) ;
#5 = DIRECTION ( 'NONE',  ( 3.491481338843133355E-15, -1.224646799147353207E-16, 1.000000000000000000 ) ) ;
#6 = CARTESIAN_POINT ( 'NONE',  ( 1.043952920314096936E-13, 0.4999999999999952260, 29.90000000000000213 ) ) ;
#7 = CARTESIAN_POINT ( 'NONE',  ( 1.047444401652940007E-13, -3.673940397442059178E-15, 30.00000000000000000 ) ) ;
#8 = CARTESIAN_POINT ( 'NONE',  ( 1.396592535537253342E-14, 1.837205733760766059E-33, 4.000000000000000000 ) ) ;
#9 = ADVANCED_FACE ( 'NONE', ( #1, #173 ), #208, .T. ) ;
#10 = PERSON_AND_ORGANIZATION_ROLE ( 'creator' ) ;
#11 = PERSON_AND_ORGANIZATION ( #205, #210 ) ;
#12 = DATE_AND_TIME ( #168, #76 ) ;
#13 = COORDINATED_UNIVERSAL_TIME_OFFSET ( 1, 0, .AHEAD. ) ;
#14 = LOCAL_TIME ( 15, 47, 31.00000000000000000, #112 ) ;
#15 = ADVANCED_FACE ( 'NONE', ( #35 ), #197, .T. ) ;
#16 = APPROVAL_DATE_TIME ( #99, #95 ) ;
#17 = EDGE_CURVE ( 'NONE', #73, #73, #198, .T. ) ;
#18 = ORIENTED_EDGE ( 'NONE', *, *, #182, .F. ) ;
#19 = FACE_OUTER_BOUND ( 'NONE', #51, .T. ) ;
#20 = DIRECTION ( 'NONE',  ( 0.0000000000000000000, 1.000000000000000000, 0.0000000000000000000 ) ) ;
#21 = FACE_BOUND ( 'NONE', #139, .T. ) ;
#22 = AXIS2_PLACEMENT_3D ( 'NONE', #90, #215, #20 ) ;
#23 = CYLINDRICAL_SURFACE ( 'NONE', #82, 0.4999999999999979461 ) ;
#24 = EDGE_CURVE ( 'NONE', #71, #71, #187, .T. ) ;
#25 = DIRECTION ( 'NONE',  ( 4.275831445896958607E-31, 1.000000000000000000, 1.224646799147352961E-16 ) ) ;
#26 = APPROVAL_ROLE ( '' ) ;
#27 = MECHANICAL_CONTEXT ( 'NONE', #100, 'mechanical' ) ;
#28 = APPLICATION_PROTOCOL_DEFINITION ( 'international standard', 'config_control_design', 1994, #100 ) ;
#29 = PRODUCT_DEFINITION_FORMATION_WITH_SPECIFIED_SOURCE ( 'ANY', '', #114, .NOT_KNOWN. ) ;
#30 = DATE_TIME_ROLE ( 'creation_date' ) ;
#31 = CC_DESIGN_PERSON_AND_ORGANIZATION_ASSIGNMENT ( #63, #202, ( #134 ) ) ;
#32 = EDGE_LOOP ( 'NONE', ( #50 ) ) ;
#33 = SHAPE_DEFINITION_REPRESENTATION ( #169, #105 ) ;
#34 = ADVANCED_FACE ( 'NONE', ( #85 ), #192, .F. ) ;
#35 = FACE_OUTER_BOUND ( 'NONE', #52, .T. ) ;
#36 = UNCERTAINTY_MEASURE_WITH_UNIT (LENGTH_MEASURE( 1.000000000000000082E-05 ), #203, 'distance_accuracy_value', 'NONE');
#37 = ORIENTED_EDGE ( 'NONE', *, *, #109, .T. ) ;
#38 = DIRECTION ( 'NONE',  ( -3.491481338843133355E-15, 1.224646799147353207E-16, -1.000000000000000000 ) ) ;
#39 = CONICAL_SURFACE ( 'NONE', #177, 0.3999999999999988565, 0.7853981633974689291 ) ;
#40 = FACE_OUTER_BOUND ( 'NONE', #32, .T. ) ;
#41 = MANIFOLD_SOLID_BREP ( 'Corps-Déplacer/Copier1[2]', #170 ) ;
#42 = DIRECTION ( 'NONE',  ( -4.275831445896958607E-31, -1.000000000000000000, -1.224646799147353207E-16 ) ) ;
#43 = APPROVAL_PERSON_ORGANIZATION ( #11, #95, #147 ) ;
#44 = DIRECTION ( 'NONE',  ( 3.491481338843133355E-15, -1.224646799147353207E-16, 1.000000000000000000 ) ) ;
#45 = AXIS2_PLACEMENT_3D ( 'NONE', #181, #184, #93 ) ;
#46 = DIRECTION ( 'NONE',  ( -3.491481338843133355E-15, 1.224646799147353207E-16, -1.000000000000000000 ) ) ;
#47 = PERSON_AND_ORGANIZATION_ROLE ( 'design_owner' ) ;
#48 = CALENDAR_DATE ( 2021, 7, 10 ) ;
#49 = PERSON_AND_ORGANIZATION ( #205, #210 ) ;
#50 = ORIENTED_EDGE ( 'NONE', *, *, #182, .T. ) ;
#51 = EDGE_LOOP ( 'NONE', ( #207 ) ) ;
#52 = EDGE_LOOP ( 'NONE', ( #153 ) ) ;
#53 = DIRECTION ( 'NONE',  ( -3.491481338843133355E-15, 1.224646799147353207E-16, -1.000000000000000000 ) ) ;
#54 =( GEOMETRIC_REPRESENTATION_CONTEXT ( 3 ) GLOBAL_UNCERTAINTY_ASSIGNED_CONTEXT ( ( #36 ) ) GLOBAL_UNIT_ASSIGNED_CONTEXT ( ( #203, #64, #61 ) ) REPRESENTATION_CONTEXT ( 'NONE', 'WORKASPACE' ) );
#55 = EDGE_LOOP ( 'NONE', ( #4 ) ) ;
#56 = CARTESIAN_POINT ( 'NONE',  ( 5.139839414522165080E-16, -1.802812982873220653E-17, 0.1472108516617533502 ) ) ;
#57 = CARTESIAN_POINT ( 'NONE',  ( 1.396592535537253342E-14, -4.898587196589412829E-16, 4.000000000000000000 ) ) ;
#58 = VERTEX_POINT ( 'NONE', #195 ) ;
#59 = FACE_OUTER_BOUND ( 'NONE', #120, .T. ) ;
#60 = DIRECTION ( 'NONE',  ( -3.491481338843133355E-15, 1.224646799147353207E-16, -1.000000000000000000 ) ) ;
#61 =( NAMED_UNIT ( * ) SI_UNIT ( $, .STERADIAN. ) SOLID_ANGLE_UNIT ( ) );
#62 = DATE_AND_TIME ( #220, #221 ) ;
#63 = PERSON_AND_ORGANIZATION ( #205, #210 ) ;
#64 =( NAMED_UNIT ( * ) PLANE_ANGLE_UNIT ( ) SI_UNIT ( $, .RADIAN. ) );
#65 = AXIS2_PLACEMENT_3D ( 'NONE', #194, #44, #160 ) ;
#66 = CARTESIAN_POINT ( 'NONE',  ( 0.0000000000000000000, 0.0000000000000000000, 0.0000000000000000000 ) ) ;
#67 = EDGE_CURVE ( 'NONE', #158, #158, #132, .T. ) ;
#68 = AXIS2_PLACEMENT_3D ( 'NONE', #8, #162, #70 ) ;
#69 = ADVANCED_FACE ( 'NONE', ( #179, #131 ), #23, .T. ) ;
#70 = DIRECTION ( 'NONE',  ( -4.275831445896958607E-31, -1.000000000000000000, -1.224646799147353207E-16 ) ) ;
#71 = VERTEX_POINT ( 'NONE', #86 ) ;
#72 = VERTEX_POINT ( 'NONE', #143 ) ;
#73 = VERTEX_POINT ( 'NONE', #102 ) ;
#74 = CC_DESIGN_PERSON_AND_ORGANIZATION_ASSIGNMENT ( #164, #10, ( #113 ) ) ;
#75 = DIRECTION ( 'NONE',  ( 0.0000000000000000000, 1.000000000000000000, 0.0000000000000000000 ) ) ;
#76 = LOCAL_TIME ( 15, 47, 31.00000000000000000, #13 ) ;
#77 = AXIS2_PLACEMENT_3D ( 'NONE', #101, #145, #214 ) ;
#78 = APPROVAL_ROLE ( '' ) ;
#79 = APPROVAL_STATUS ( 'not_yet_approved' ) ;
#80 = APPROVAL_PERSON_ORGANIZATION ( #166, #148, #78 ) ;
#81 = PERSON_AND_ORGANIZATION ( #205, #210 ) ;
#82 = AXIS2_PLACEMENT_3D ( 'NONE', #199, #217, #25 ) ;
#83 = COORDINATED_UNIVERSAL_TIME_OFFSET ( 1, 0, .AHEAD. ) ;
#84 = ORIENTED_EDGE ( 'NONE', *, *, #67, .F. ) ;
#85 = FACE_OUTER_BOUND ( 'NONE', #119, .T. ) ;
#86 = CARTESIAN_POINT ( 'NONE',  ( 1.396592535537253342E-14, 0.2449999999999992462, 4.000000000000000000 ) ) ;
#87 = PLANE ( 'NONE',  #172 ) ;
#88 = CC_DESIGN_PERSON_AND_ORGANIZATION_ASSIGNMENT ( #219, #223, ( #29 ) ) ;
#89 = CARTESIAN_POINT ( 'NONE',  ( 1.728867372168408893E-14, -6.064050435904283600E-16, 4.951672955930078501 ) ) ;
#90 = CARTESIAN_POINT ( 'NONE',  ( 1.047444401652940007E-13, -3.673940397442059178E-15, 30.00000000000000000 ) ) ;
#91 = DATE_AND_TIME ( #117, #14 ) ;
#92 = CIRCLE ( 'NONE', #149, 0.4999999999999970024 ) ;
#93 = DIRECTION ( 'NONE',  ( 1.000000000000000000, 0.0000000000000000000, 0.0000000000000000000 ) ) ;
#94 = CARTESIAN_POINT ( 'NONE',  ( 1.728867372168408893E-14, 0.4999999999999963363, 4.951672955930078501 ) ) ;
#95 = APPROVAL ( #79, 'UNSPECIFIED' ) ;
#96 = VERTEX_POINT ( 'NONE', #94 ) ;
#97 = APPROVAL_STATUS ( 'not_yet_approved' ) ;
#98 = EDGE_LOOP ( 'NONE', ( #176 ) ) ;
#99 = DATE_AND_TIME ( #123, #2 ) ;
#100 = APPLICATION_CONTEXT ( 'configuration controlled 3d designs of mechanical parts and assemblies' ) ;
#101 = CARTESIAN_POINT ( 'NONE',  ( 5.139839414522165080E-16, -1.802812982873220653E-17, 0.1472108516617533502 ) ) ;
#102 = CARTESIAN_POINT ( 'NONE',  ( 1.047444401652940007E-13, 0.3999999999999951927, 30.00000000000000000 ) ) ;
#103 = PRODUCT_RELATED_PRODUCT_CATEGORY ( 'detail', '', ( #114 ) ) ;
#104 = DIRECTION ( 'NONE',  ( 3.930469274259679975E-31, 1.000000000000000000, 1.106328747434192411E-16 ) ) ;
#105 = ADVANCED_BREP_SHAPE_REPRESENTATION ( '38063', ( #189, #41, #45 ), #54 ) ;
#106 = CARTESIAN_POINT ( 'NONE',  ( 1.043952920314096936E-13, -3.661693929450586610E-15, 29.90000000000000213 ) ) ;
#107 = APPROVAL_PERSON_ORGANIZATION ( #49, #196, #26 ) ;
#108 = FACE_OUTER_BOUND ( 'NONE', #138, .T. ) ;
#109 = EDGE_CURVE ( 'NONE', #72, #72, #118, .T. ) ;
#110 = APPLICATION_PROTOCOL_DEFINITION ( 'international standard', 'config_control_design', 1994, #167 ) ;
#111 = DATE_AND_TIME ( #48, #116 ) ;
#112 = COORDINATED_UNIVERSAL_TIME_OFFSET ( 1, 0, .AHEAD. ) ;
#113 = PRODUCT_DEFINITION ( 'UNKNOWN', '', #29, #213 ) ;
#114 = PRODUCT ( '38063', '38063', '', ( #27 ) ) ;
#115 = APPROVAL_STATUS ( 'not_yet_approved' ) ;
#116 = LOCAL_TIME ( 15, 47, 31.00000000000000000, #135 ) ;
#117 = CALENDAR_DATE ( 2021, 7, 10 ) ;
#118 = CIRCLE ( 'NONE', #204, 0.2449999999999990796 ) ;
#119 = EDGE_LOOP ( 'NONE', ( #152 ) ) ;
#120 = EDGE_LOOP ( 'NONE', ( #37 ) ) ;
#121 = AXIS2_PLACEMENT_3D ( 'NONE', #66, #53, #122 ) ;
#122 = DIRECTION ( 'NONE',  ( 4.275831445896958607E-31, 1.000000000000000000, 1.224646799147352961E-16 ) ) ;
#123 = CALENDAR_DATE ( 2021, 7, 10 ) ;
#124 = ORIENTED_EDGE ( 'NONE', *, *, #201, .F. ) ;
#125 = DIRECTION ( 'NONE',  ( 0.0000000000000000000, 1.000000000000000000, 0.0000000000000000000 ) ) ;
#126 = DIRECTION ( 'NONE',  ( -3.491481338843133355E-15, 1.224646799147353207E-16, -1.000000000000000000 ) ) ;
#127 = CC_DESIGN_DATE_AND_TIME_ASSIGNMENT ( #111, #183, ( #134 ) ) ;
#128 = DIRECTION ( 'NONE',  ( -3.491481338843133355E-15, 1.224646799147353207E-16, -1.000000000000000000 ) ) ;
#129 = CC_DESIGN_APPROVAL ( #148, ( #29 ) ) ;
#130 = DIRECTION ( 'NONE',  ( -3.491481338843133355E-15, 1.224646799147353207E-16, -1.000000000000000000 ) ) ;
#131 = FACE_OUTER_BOUND ( 'NONE', #55, .T. ) ;
#132 = CIRCLE ( 'NONE', #209, 0.4999999999999989453 ) ;
#133 = SECURITY_CLASSIFICATION_LEVEL ( 'unclassified' ) ;
#134 = SECURITY_CLASSIFICATION ( '', '', #133 ) ;
#135 = COORDINATED_UNIVERSAL_TIME_OFFSET ( 1, 0, .AHEAD. ) ;
#136 = CC_DESIGN_SECURITY_CLASSIFICATION ( #134, ( #29 ) ) ;
#137 = CONICAL_SURFACE ( 'NONE', #65, 0.4999999999999970024, 0.2617993877991428020 ) ;
#138 = EDGE_LOOP ( 'NONE', ( #84 ) ) ;
#139 = EDGE_LOOP ( 'NONE', ( #190 ) ) ;
#140 = EDGE_LOOP ( 'NONE', ( #155 ) ) ;
#141 = CARTESIAN_POINT ( 'NONE',  ( 1.047444401652940007E-13, 2.999519565323651582E-33, 30.00000000000000000 ) ) ;
#142 = DIRECTION ( 'NONE',  ( 0.0000000000000000000, 1.000000000000000000, 0.0000000000000000000 ) ) ;
#143 = CARTESIAN_POINT ( 'NONE',  ( 5.139839414522166066E-16, 0.2449999999999990796, 0.1472108516617533780 ) ) ;
#144 = CARTESIAN_POINT ( 'NONE',  ( 1.396592535537253342E-14, -4.898587196589412829E-16, 4.000000000000000000 ) ) ;
#145 = DIRECTION ( 'NONE',  ( 3.491481338843133355E-15, -1.224646799147353207E-16, 1.000000000000000000 ) ) ;
#146 = PERSON_AND_ORGANIZATION_ROLE ( 'creator' ) ;
#147 = APPROVAL_ROLE ( '' ) ;
#148 = APPROVAL ( #97, 'UNSPECIFIED' ) ;
#149 = AXIS2_PLACEMENT_3D ( 'NONE', #89, #60, #157 ) ;
#150 = APPROVAL_DATE_TIME ( #62, #148 ) ;
#151 = ADVANCED_FACE ( 'NONE', ( #108, #21 ), #39, .T. ) ;
#152 = ORIENTED_EDGE ( 'NONE', *, *, #17, .F. ) ;
#153 = ORIENTED_EDGE ( 'NONE', *, *, #24, .F. ) ;
#154 = CLOSED_SHELL ( 'NONE', ( #211, #165, #69, #151, #34 ) ) ;
#155 = ORIENTED_EDGE ( 'NONE', *, *, #24, .T. ) ;
#156 = CC_DESIGN_PERSON_AND_ORGANIZATION_ASSIGNMENT ( #81, #146, ( #29 ) ) ;
#157 = DIRECTION ( 'NONE',  ( 0.0000000000000000000, 1.000000000000000000, 0.0000000000000000000 ) ) ;
#158 = VERTEX_POINT ( 'NONE', #6 ) ;
#159 = CONICAL_SURFACE ( 'NONE', #77, 0.2449999999999990796, 1.029744258676649649 ) ;
#160 = DIRECTION ( 'NONE',  ( 0.0000000000000000000, -1.000000000000000000, 0.0000000000000000000 ) ) ;
#161 = ADVANCED_FACE ( 'NONE', ( #59 ), #159, .T. ) ;
#162 = DIRECTION ( 'NONE',  ( 3.491481338843133355E-15, -1.224646799147353207E-16, 1.000000000000000000 ) ) ;
#163 = DIRECTION ( 'NONE',  ( 0.0000000000000000000, 1.000000000000000000, 0.0000000000000000000 ) ) ;
#164 = PERSON_AND_ORGANIZATION ( #205, #210 ) ;
#165 = ADVANCED_FACE ( 'NONE', ( #178, #19 ), #137, .T. ) ;
#166 = PERSON_AND_ORGANIZATION ( #205, #210 ) ;
#167 = APPLICATION_CONTEXT ( 'configuration controlled 3d designs of mechanical parts and assemblies' ) ;
#168 = CALENDAR_DATE ( 2021, 7, 10 ) ;
#169 = PRODUCT_DEFINITION_SHAPE ( 'NONE', 'NONE',  #113 ) ;
#170 = CLOSED_SHELL ( 'NONE', ( #161, #9, #15 ) ) ;
#171 = CC_DESIGN_DATE_AND_TIME_ASSIGNMENT ( #12, #30, ( #113 ) ) ;
#172 = AXIS2_PLACEMENT_3D ( 'NONE', #180, #5, #42 ) ;
#173 = FACE_OUTER_BOUND ( 'NONE', #140, .T. ) ;
#174 = CC_DESIGN_APPROVAL ( #196, ( #113 ) ) ;
#175 = EDGE_LOOP ( 'NONE', ( #124 ) ) ;
#176 = ORIENTED_EDGE ( 'NONE', *, *, #109, .F. ) ;
#177 = AXIS2_PLACEMENT_3D ( 'NONE', #7, #126, #125 ) ;
#178 = FACE_BOUND ( 'NONE', #188, .T. ) ;
#179 = FACE_OUTER_BOUND ( 'NONE', #175, .T. ) ;
#180 = CARTESIAN_POINT ( 'NONE',  ( 1.396592535537253342E-14, 1.837205733760766059E-33, 4.000000000000000000 ) ) ;
#181 = CARTESIAN_POINT ( 'NONE',  ( 0.0000000000000000000, 0.0000000000000000000, 0.0000000000000000000 ) ) ;
#182 = EDGE_CURVE ( 'NONE', #58, #58, #206, .T. ) ;
#183 = DATE_TIME_ROLE ( 'classification_date' ) ;
#184 = DIRECTION ( 'NONE',  ( 0.0000000000000000000, 0.0000000000000000000, 1.000000000000000000 ) ) ;
#185 = CC_DESIGN_APPROVAL ( #95, ( #134 ) ) ;
#186 = APPROVAL_DATE_TIME ( #91, #196 ) ;
#187 = CIRCLE ( 'NONE', #3, 0.2449999999999997180 ) ;
#188 = EDGE_LOOP ( 'NONE', ( #18 ) ) ;
#189 = MANIFOLD_SOLID_BREP ( 'Corps-Déplacer/Copier1[1]', #154 ) ;
#190 = ORIENTED_EDGE ( 'NONE', *, *, #17, .T. ) ;
#191 = CC_DESIGN_PERSON_AND_ORGANIZATION_ASSIGNMENT ( #200, #47, ( #114 ) ) ;
#192 = PLANE ( 'NONE',  #218 ) ;
#193 = AXIS2_PLACEMENT_3D ( 'NONE', #144, #130, #142 ) ;
#194 = CARTESIAN_POINT ( 'NONE',  ( 1.728867372168408893E-14, -6.064050435904283600E-16, 4.951672955930078501 ) ) ;
#195 = CARTESIAN_POINT ( 'NONE',  ( 1.396592535537253342E-14, 0.2449999999999992462, 4.000000000000000000 ) ) ;
#196 = APPROVAL ( #115, 'UNSPECIFIED' ) ;
#197 = PLANE ( 'NONE',  #68 ) ;
#198 = CIRCLE ( 'NONE', #22, 0.3999999999999988565 ) ;
#199 = CARTESIAN_POINT ( 'NONE',  ( 0.0000000000000000000, 0.0000000000000000000, 0.0000000000000000000 ) ) ;
#200 = PERSON_AND_ORGANIZATION ( #205, #210 ) ;
#201 = EDGE_CURVE ( 'NONE', #96, #96, #92, .T. ) ;
#202 = PERSON_AND_ORGANIZATION_ROLE ( 'classification_officer' ) ;
#203 =( LENGTH_UNIT ( ) NAMED_UNIT ( * ) SI_UNIT ( .MILLI., .METRE. ) );
#204 = AXIS2_PLACEMENT_3D ( 'NONE', #56, #46, #104 ) ;
#205 = PERSON ( 'UNSPECIFIED', 'UNSPECIFIED', 'UNSPECIFIED', ('UNSPECIFIED'), ('UNSPECIFIED'), ('UNSPECIFIED') ) ;
#206 = CIRCLE ( 'NONE', #193, 0.2449999999999997180 ) ;
#207 = ORIENTED_EDGE ( 'NONE', *, *, #201, .T. ) ;
#208 = CYLINDRICAL_SURFACE ( 'NONE', #121, 0.2449999999999993849 ) ;
#209 = AXIS2_PLACEMENT_3D ( 'NONE', #106, #38, #75 ) ;
#210 = ORGANIZATION ( 'UNSPECIFIED', 'UNSPECIFIED', '' ) ;
#211 = ADVANCED_FACE ( 'NONE', ( #40 ), #87, .F. ) ;
#212 = DIRECTION ( 'NONE',  ( -3.491481338843133355E-15, 1.224646799147353207E-16, -1.000000000000000000 ) ) ;
#213 = DESIGN_CONTEXT ( 'detailed design', #167, 'design' ) ;
#214 = DIRECTION ( 'NONE',  ( -3.930469274259679975E-31, -1.000000000000000000, -1.106328747434192411E-16 ) ) ;
#215 = DIRECTION ( 'NONE',  ( -3.491481338843133355E-15, 1.224646799147353207E-16, -1.000000000000000000 ) ) ;
#216 = DIRECTION ( 'NONE',  ( 4.275831445896958607E-31, 1.000000000000000000, 1.224646799147353207E-16 ) ) ;
#217 = DIRECTION ( 'NONE',  ( -3.491481338843133355E-15, 1.224646799147353207E-16, -1.000000000000000000 ) ) ;
#218 = AXIS2_PLACEMENT_3D ( 'NONE', #141, #128, #216 ) ;
#219 = PERSON_AND_ORGANIZATION ( #205, #210 ) ;
#220 = CALENDAR_DATE ( 2021, 7, 10 ) ;
#221 = LOCAL_TIME ( 15, 47, 31.00000000000000000, #83 ) ;
#222 = COORDINATED_UNIVERSAL_TIME_OFFSET ( 1, 0, .AHEAD. ) ;
#223 = PERSON_AND_ORGANIZATION_ROLE ( 'design_supplier' ) ;
ENDSEC;
END-ISO-10303-21;
