ISO-10303-21;
HEADER;
FILE_DESCRIPTION (( 'STEP AP203' ),
    '1' );
FILE_NAME ('38062.step',
    '2021-10-07T13:47:30',
    ( '' ),
    ( '' ),
    'SwSTEP 2.0',
    'SolidWorks 2019',
    '' );
FILE_SCHEMA (( 'CONFIG_CONTROL_DESIGN' ));
ENDSEC;

DATA;
#1 = DIRECTION ( 'NONE',  ( -3.491481338843133355E-15, 1.224646799147353207E-16, -1.000000000000000000 ) ) ;
#2 = DIRECTION ( 'NONE',  ( -4.275831445896958607E-31, -1.000000000000000000, -1.224646799147353207E-16 ) ) ;
#3 = DATE_TIME_ROLE ( 'creation_date' ) ;
#4 = AXIS2_PLACEMENT_3D ( 'NONE', #67, #168, #134 ) ;
#5 = PERSON_AND_ORGANIZATION ( #199, #186 ) ;
#6 = PERSON_AND_ORGANIZATION_ROLE ( 'creator' ) ;
#7 =( NAMED_UNIT ( * ) SI_UNIT ( $, .STERADIAN. ) SOLID_ANGLE_UNIT ( ) );
#8 = CONICAL_SURFACE ( 'NONE', #4, 0.2399999999999990752, 1.029744258676649649 ) ;
#9 = VERTEX_POINT ( 'NONE', #181 ) ;
#10 = EDGE_CURVE ( 'NONE', #48, #48, #221, .T. ) ;
#11 = EDGE_LOOP ( 'NONE', ( #110 ) ) ;
#12 = ORIENTED_EDGE ( 'NONE', *, *, #141, .T. ) ;
#13 = ADVANCED_FACE ( 'NONE', ( #146 ), #62, .F. ) ;
#14 = DIRECTION ( 'NONE',  ( -3.491481338843133355E-15, 1.224646799147353207E-16, -1.000000000000000000 ) ) ;
#15 = LOCAL_TIME ( 15, 47, 30.00000000000000000, #160 ) ;
#16 = DIRECTION ( 'NONE',  ( 0.0000000000000000000, 1.000000000000000000, 0.0000000000000000000 ) ) ;
#17 = CARTESIAN_POINT ( 'NONE',  ( 5.034944732593140276E-16, -1.766020881181929995E-17, 0.1442065485666154945 ) ) ;
#18 = CARTESIAN_POINT ( 'NONE',  ( 0.0000000000000000000, 0.0000000000000000000, 0.0000000000000000000 ) ) ;
#19 = CARTESIAN_POINT ( 'NONE',  ( 1.256933281983528008E-14, 0.2399999999999989919, 3.600000000000000089 ) ) ;
#20 = FACE_OUTER_BOUND ( 'NONE', #43, .T. ) ;
#21 = DATE_AND_TIME ( #122, #145 ) ;
#22 = PERSON_AND_ORGANIZATION ( #199, #186 ) ;
#23 = COORDINATED_UNIVERSAL_TIME_OFFSET ( 1, 0, .AHEAD. ) ;
#24 = DATE_AND_TIME ( #157, #204 ) ;
#25 = PRODUCT_DEFINITION_FORMATION_WITH_SPECIFIED_SOURCE ( 'ANY', '', #74, .NOT_KNOWN. ) ;
#26 = EDGE_LOOP ( 'NONE', ( #128 ) ) ;
#27 = CC_DESIGN_APPROVAL ( #42, ( #25 ) ) ;
#28 = ORIENTED_EDGE ( 'NONE', *, *, #141, .F. ) ;
#29 = APPLICATION_CONTEXT ( 'configuration controlled 3d designs of mechanical parts and assemblies' ) ;
#30 = CARTESIAN_POINT ( 'NONE',  ( 1.595723311489804070E-14, -5.597043936624065624E-16, 4.570333209967923693 ) ) ;
#31 = FACE_OUTER_BOUND ( 'NONE', #185, .T. ) ;
#32 = DIRECTION ( 'NONE',  ( 4.275831445896958607E-31, 1.000000000000000000, 1.224646799147353207E-16 ) ) ;
#33 = FACE_BOUND ( 'NONE', #130, .T. ) ;
#34 = AXIS2_PLACEMENT_3D ( 'NONE', #81, #119, #2 ) ;
#35 = DIRECTION ( 'NONE',  ( 0.0000000000000000000, 1.000000000000000000, 0.0000000000000000000 ) ) ;
#36 = DATE_AND_TIME ( #135, #84 ) ;
#37 = CARTESIAN_POINT ( 'NONE',  ( 5.034944732593141262E-16, 0.2399999999999990474, 0.1442065485666155222 ) ) ;
#38 = ADVANCED_FACE ( 'NONE', ( #206, #118 ), #190, .T. ) ;
#39 = PERSON_AND_ORGANIZATION ( #199, #186 ) ;
#40 = AXIS2_PLACEMENT_3D ( 'NONE', #80, #99, #32 ) ;
#41 = UNCERTAINTY_MEASURE_WITH_UNIT (LENGTH_MEASURE( 1.000000000000000082E-05 ), #179, 'distance_accuracy_value', 'NONE');
#42 = APPROVAL ( #212, 'UNSPECIFIED' ) ;
#43 = EDGE_LOOP ( 'NONE', ( #92 ) ) ;
#44 = VERTEX_POINT ( 'NONE', #37 ) ;
#45 = DIRECTION ( 'NONE',  ( -4.275831445896958607E-31, -1.000000000000000000, -1.224646799147353207E-16 ) ) ;
#46 = AXIS2_PLACEMENT_3D ( 'NONE', #49, #193, #45 ) ;
#47 = CARTESIAN_POINT ( 'NONE',  ( 1.595723311489804070E-14, -5.597043936624065624E-16, 4.570333209967923693 ) ) ;
#48 = VERTEX_POINT ( 'NONE', #83 ) ;
#49 = CARTESIAN_POINT ( 'NONE',  ( 1.256933281983527850E-14, -1.301042606982608003E-14, 3.599999999999999645 ) ) ;
#50 = APPROVAL_PERSON_ORGANIZATION ( #5, #42, #70 ) ;
#51 = MECHANICAL_CONTEXT ( 'NONE', #150, 'mechanical' ) ;
#52 = PERSON_AND_ORGANIZATION_ROLE ( 'classification_officer' ) ;
#53 = APPROVAL_DATE_TIME ( #21, #42 ) ;
#54 = AXIS2_PLACEMENT_3D ( 'NONE', #124, #102, #89 ) ;
#55 = COORDINATED_UNIVERSAL_TIME_OFFSET ( 1, 0, .AHEAD. ) ;
#56 = ADVANCED_FACE ( 'NONE', ( #148 ), #8, .T. ) ;
#57 = APPLICATION_PROTOCOL_DEFINITION ( 'international standard', 'config_control_design', 1994, #150 ) ;
#58 = DATE_AND_TIME ( #126, #15 ) ;
#59 = APPROVAL_PERSON_ORGANIZATION ( #159, #82, #214 ) ;
#60 = EDGE_LOOP ( 'NONE', ( #164 ) ) ;
#61 = AXIS2_PLACEMENT_3D ( 'NONE', #47, #189, #210 ) ;
#62 = PLANE ( 'NONE',  #40 ) ;
#63 = CARTESIAN_POINT ( 'NONE',  ( 1.047444401652940007E-13, -3.673940397442059178E-15, 30.00000000000000000 ) ) ;
#64 = CARTESIAN_POINT ( 'NONE',  ( 0.0000000000000000000, 0.0000000000000000000, 0.0000000000000000000 ) ) ;
#65 = CC_DESIGN_DATE_AND_TIME_ASSIGNMENT ( #36, #211, ( #182 ) ) ;
#66 = PLANE ( 'NONE',  #34 ) ;
#67 = CARTESIAN_POINT ( 'NONE',  ( 5.034944732593140276E-16, -1.766020881181929995E-17, 0.1442065485666154945 ) ) ;
#68 = DIRECTION ( 'NONE',  ( -3.491481338843133355E-15, 1.224646799147353207E-16, -1.000000000000000000 ) ) ;
#69 = EDGE_CURVE ( 'NONE', #149, #149, #166, .T. ) ;
#70 = APPROVAL_ROLE ( '' ) ;
#71 = APPROVAL_STATUS ( 'not_yet_approved' ) ;
#72 = CC_DESIGN_DATE_AND_TIME_ASSIGNMENT ( #24, #3, ( #215 ) ) ;
#73 = AXIS2_PLACEMENT_3D ( 'NONE', #17, #117, #113 ) ;
#74 = PRODUCT ( '38062', '38062', '', ( #51 ) ) ;
#75 = ORIENTED_EDGE ( 'NONE', *, *, #69, .T. ) ;
#76 = CONICAL_SURFACE ( 'NONE', #61, 0.4999999999999968914, 0.2617993877991429685 ) ;
#77 = EDGE_CURVE ( 'NONE', #171, #171, #176, .T. ) ;
#78 = DIRECTION ( 'NONE',  ( 0.0000000000000000000, 1.000000000000000000, 0.0000000000000000000 ) ) ;
#79 = AXIS2_PLACEMENT_3D ( 'NONE', #95, #68, #16 ) ;
#80 = CARTESIAN_POINT ( 'NONE',  ( 1.047444401652940007E-13, 2.999519565323651582E-33, 30.00000000000000000 ) ) ;
#81 = CARTESIAN_POINT ( 'NONE',  ( 1.256933281983527850E-14, -1.301042606982608003E-14, 3.599999999999999645 ) ) ;
#82 = APPROVAL ( #71, 'UNSPECIFIED' ) ;
#83 = CARTESIAN_POINT ( 'NONE',  ( 1.256933281983528008E-14, 0.2399999999999989919, 3.600000000000000089 ) ) ;
#84 = LOCAL_TIME ( 15, 47, 30.00000000000000000, #103 ) ;
#85 = CARTESIAN_POINT ( 'NONE',  ( 1.043952920314096936E-13, 0.4999999999999952260, 29.90000000000000213 ) ) ;
#86 = FACE_OUTER_BOUND ( 'NONE', #11, .T. ) ;
#87 = APPROVAL_ROLE ( '' ) ;
#88 = PERSON_AND_ORGANIZATION_ROLE ( 'design_owner' ) ;
#89 = DIRECTION ( 'NONE',  ( 1.000000000000000000, 0.0000000000000000000, 0.0000000000000000000 ) ) ;
#90 = PRODUCT_RELATED_PRODUCT_CATEGORY ( 'detail', '', ( #74 ) ) ;
#91 = APPLICATION_PROTOCOL_DEFINITION ( 'international standard', 'config_control_design', 1994, #29 ) ;
#92 = ORIENTED_EDGE ( 'NONE', *, *, #10, .T. ) ;
#93 = EDGE_LOOP ( 'NONE', ( #187 ) ) ;
#94 = ORIENTED_EDGE ( 'NONE', *, *, #77, .T. ) ;
#95 = CARTESIAN_POINT ( 'NONE',  ( 1.047444401652940007E-13, -3.673940397442059178E-15, 30.00000000000000000 ) ) ;
#96 = FACE_OUTER_BOUND ( 'NONE', #107, .T. ) ;
#97 = DIRECTION ( 'NONE',  ( -3.491481338843133355E-15, 1.224646799147353207E-16, -1.000000000000000000 ) ) ;
#98 = DIRECTION ( 'NONE',  ( 0.0000000000000000000, 1.000000000000000000, 0.0000000000000000000 ) ) ;
#99 = DIRECTION ( 'NONE',  ( -3.491481338843133355E-15, 1.224646799147353207E-16, -1.000000000000000000 ) ) ;
#100 =( NAMED_UNIT ( * ) PLANE_ANGLE_UNIT ( ) SI_UNIT ( $, .RADIAN. ) );
#101 = CC_DESIGN_APPROVAL ( #82, ( #215 ) ) ;
#102 = DIRECTION ( 'NONE',  ( 0.0000000000000000000, 0.0000000000000000000, 1.000000000000000000 ) ) ;
#103 = COORDINATED_UNIVERSAL_TIME_OFFSET ( 1, 0, .AHEAD. ) ;
#104 = SHAPE_DEFINITION_REPRESENTATION ( #163, #158 ) ;
#105 = ORIENTED_EDGE ( 'NONE', *, *, #69, .F. ) ;
#106 = ADVANCED_FACE ( 'NONE', ( #194, #33 ), #216, .T. ) ;
#107 = EDGE_LOOP ( 'NONE', ( #94 ) ) ;
#108 = EDGE_LOOP ( 'NONE', ( #105 ) ) ;
#109 = APPROVAL_DATE_TIME ( #58, #127 ) ;
#110 = ORIENTED_EDGE ( 'NONE', *, *, #77, .F. ) ;
#111 = DIRECTION ( 'NONE',  ( -3.491481338843133355E-15, 1.224646799147353207E-16, -1.000000000000000000 ) ) ;
#112 = MANIFOLD_SOLID_BREP ( 'Corps-Déplacer/Copier1[2]', #175 ) ;
#113 = DIRECTION ( 'NONE',  ( 4.012354050806756541E-31, 1.000000000000000000, 1.129377263005738058E-16 ) ) ;
#114 = CIRCLE ( 'NONE', #207, 0.4999999999999989453 ) ;
#115 = ADVANCED_FACE ( 'NONE', ( #219, #131 ), #76, .T. ) ;
#116 = AXIS2_PLACEMENT_3D ( 'NONE', #165, #14, #78 ) ;
#117 = DIRECTION ( 'NONE',  ( -3.491481338843133355E-15, 1.224646799147353207E-16, -1.000000000000000000 ) ) ;
#118 = FACE_OUTER_BOUND ( 'NONE', #26, .T. ) ;
#119 = DIRECTION ( 'NONE',  ( 3.491481338843133355E-15, -1.224646799147353207E-16, 1.000000000000000000 ) ) ;
#120 =( GEOMETRIC_REPRESENTATION_CONTEXT ( 3 ) GLOBAL_UNCERTAINTY_ASSIGNED_CONTEXT ( ( #41 ) ) GLOBAL_UNIT_ASSIGNED_CONTEXT ( ( #179, #100, #7 ) ) REPRESENTATION_CONTEXT ( 'NONE', 'WORKASPACE' ) );
#121 = PERSON_AND_ORGANIZATION ( #199, #186 ) ;
#122 = CALENDAR_DATE ( 2021, 7, 10 ) ;
#123 = APPROVAL_PERSON_ORGANIZATION ( #121, #127, #87 ) ;
#124 = CARTESIAN_POINT ( 'NONE',  ( 0.0000000000000000000, 0.0000000000000000000, 0.0000000000000000000 ) ) ;
#125 = DATE_AND_TIME ( #156, #218 ) ;
#126 = CALENDAR_DATE ( 2021, 7, 10 ) ;
#127 = APPROVAL ( #174, 'UNSPECIFIED' ) ;
#128 = ORIENTED_EDGE ( 'NONE', *, *, #132, .T. ) ;
#129 = AXIS2_PLACEMENT_3D ( 'NONE', #30, #169, #35 ) ;
#130 = EDGE_LOOP ( 'NONE', ( #75 ) ) ;
#131 = FACE_OUTER_BOUND ( 'NONE', #60, .T. ) ;
#132 = EDGE_CURVE ( 'NONE', #152, #152, #114, .T. ) ;
#133 = CARTESIAN_POINT ( 'NONE',  ( 1.256933281983528008E-14, -4.408728476930471151E-16, 3.600000000000000089 ) ) ;
#134 = DIRECTION ( 'NONE',  ( -4.012354050806756541E-31, -1.000000000000000000, -1.129377263005738058E-16 ) ) ;
#135 = CALENDAR_DATE ( 2021, 7, 10 ) ;
#136 = CC_DESIGN_SECURITY_CLASSIFICATION ( #182, ( #25 ) ) ;
#137 = PERSON_AND_ORGANIZATION ( #199, #186 ) ;
#138 = PERSON_AND_ORGANIZATION_ROLE ( 'creator' ) ;
#139 = PERSON_AND_ORGANIZATION ( #199, #186 ) ;
#140 = CC_DESIGN_APPROVAL ( #127, ( #182 ) ) ;
#141 = EDGE_CURVE ( 'NONE', #44, #44, #222, .T. ) ;
#142 = AXIS2_PLACEMENT_3D ( 'NONE', #18, #173, #205 ) ;
#143 = CC_DESIGN_PERSON_AND_ORGANIZATION_ASSIGNMENT ( #137, #213, ( #25 ) ) ;
#144 = EDGE_LOOP ( 'NONE', ( #12 ) ) ;
#145 = LOCAL_TIME ( 15, 47, 30.00000000000000000, #202 ) ;
#146 = FACE_OUTER_BOUND ( 'NONE', #108, .T. ) ;
#147 = DIRECTION ( 'NONE',  ( 4.275831445896958607E-31, 1.000000000000000000, 1.224646799147353207E-16 ) ) ;
#148 = FACE_OUTER_BOUND ( 'NONE', #144, .T. ) ;
#149 = VERTEX_POINT ( 'NONE', #223 ) ;
#150 = APPLICATION_CONTEXT ( 'configuration controlled 3d designs of mechanical parts and assemblies' ) ;
#151 = CC_DESIGN_PERSON_AND_ORGANIZATION_ASSIGNMENT ( #39, #52, ( #182 ) ) ;
#152 = VERTEX_POINT ( 'NONE', #85 ) ;
#153 = CARTESIAN_POINT ( 'NONE',  ( 1.043952920314096936E-13, -3.661693929450586610E-15, 29.90000000000000213 ) ) ;
#154 = SECURITY_CLASSIFICATION_LEVEL ( 'unclassified' ) ;
#155 = CLOSED_SHELL ( 'NONE', ( #170, #115, #38, #106, #13 ) ) ;
#156 = CALENDAR_DATE ( 2021, 7, 10 ) ;
#157 = CALENDAR_DATE ( 2021, 7, 10 ) ;
#158 = ADVANCED_BREP_SHAPE_REPRESENTATION ( '38062', ( #191, #112, #54 ), #120 ) ;
#159 = PERSON_AND_ORGANIZATION ( #199, #186 ) ;
#160 = COORDINATED_UNIVERSAL_TIME_OFFSET ( 1, 0, .AHEAD. ) ;
#161 = DESIGN_CONTEXT ( 'detailed design', #29, 'design' ) ;
#162 = ORIENTED_EDGE ( 'NONE', *, *, #10, .F. ) ;
#163 = PRODUCT_DEFINITION_SHAPE ( 'NONE', 'NONE',  #215 ) ;
#164 = ORIENTED_EDGE ( 'NONE', *, *, #180, .T. ) ;
#165 = CARTESIAN_POINT ( 'NONE',  ( 1.256933281983528008E-14, -4.408728476930471151E-16, 3.600000000000000089 ) ) ;
#166 = CIRCLE ( 'NONE', #200, 0.3999999999999988565 ) ;
#167 = DIRECTION ( 'NONE',  ( -3.491481338843133355E-15, 1.224646799147353207E-16, -1.000000000000000000 ) ) ;
#168 = DIRECTION ( 'NONE',  ( 3.491481338843133355E-15, -1.224646799147353207E-16, 1.000000000000000000 ) ) ;
#169 = DIRECTION ( 'NONE',  ( -3.491481338843133355E-15, 1.224646799147353207E-16, -1.000000000000000000 ) ) ;
#170 = ADVANCED_FACE ( 'NONE', ( #20 ), #220, .F. ) ;
#171 = VERTEX_POINT ( 'NONE', #19 ) ;
#172 = AXIS2_PLACEMENT_3D ( 'NONE', #133, #1, #208 ) ;
#173 = DIRECTION ( 'NONE',  ( -3.491481338843133355E-15, 1.224646799147353207E-16, -1.000000000000000000 ) ) ;
#174 = APPROVAL_STATUS ( 'not_yet_approved' ) ;
#175 = CLOSED_SHELL ( 'NONE', ( #56, #203, #198 ) ) ;
#176 = CIRCLE ( 'NONE', #172, 0.2399999999999994360 ) ;
#177 = AXIS2_PLACEMENT_3D ( 'NONE', #64, #111, #147 ) ;
#178 = PERSON_AND_ORGANIZATION ( #199, #186 ) ;
#179 =( LENGTH_UNIT ( ) NAMED_UNIT ( * ) SI_UNIT ( .MILLI., .METRE. ) );
#180 = EDGE_CURVE ( 'NONE', #9, #9, #196, .T. ) ;
#181 = CARTESIAN_POINT ( 'NONE',  ( 1.595723311489804070E-14, 0.4999999999999963363, 4.570333209967923693 ) ) ;
#182 = SECURITY_CLASSIFICATION ( '', '', #154 ) ;
#183 = EDGE_LOOP ( 'NONE', ( #162 ) ) ;
#184 = ORIENTED_EDGE ( 'NONE', *, *, #132, .F. ) ;
#185 = EDGE_LOOP ( 'NONE', ( #28 ) ) ;
#186 = ORGANIZATION ( 'UNSPECIFIED', 'UNSPECIFIED', '' ) ;
#187 = ORIENTED_EDGE ( 'NONE', *, *, #180, .F. ) ;
#188 = EDGE_LOOP ( 'NONE', ( #184 ) ) ;
#189 = DIRECTION ( 'NONE',  ( 3.491481338843133355E-15, -1.224646799147353207E-16, 1.000000000000000000 ) ) ;
#190 = CYLINDRICAL_SURFACE ( 'NONE', #177, 0.4999999999999978351 ) ;
#191 = MANIFOLD_SOLID_BREP ( 'Corps-Déplacer/Copier1[1]', #155 ) ;
#192 = CC_DESIGN_PERSON_AND_ORGANIZATION_ASSIGNMENT ( #139, #6, ( #25 ) ) ;
#193 = DIRECTION ( 'NONE',  ( 3.491481338843133355E-15, -1.224646799147353207E-16, 1.000000000000000000 ) ) ;
#194 = FACE_OUTER_BOUND ( 'NONE', #188, .T. ) ;
#195 = CYLINDRICAL_SURFACE ( 'NONE', #142, 0.2399999999999992695 ) ;
#196 = CIRCLE ( 'NONE', #129, 0.4999999999999968914 ) ;
#197 = APPROVAL_DATE_TIME ( #125, #82 ) ;
#198 = ADVANCED_FACE ( 'NONE', ( #86 ), #66, .T. ) ;
#199 = PERSON ( 'UNSPECIFIED', 'UNSPECIFIED', 'UNSPECIFIED', ('UNSPECIFIED'), ('UNSPECIFIED'), ('UNSPECIFIED') ) ;
#200 = AXIS2_PLACEMENT_3D ( 'NONE', #63, #167, #98 ) ;
#201 = CC_DESIGN_PERSON_AND_ORGANIZATION_ASSIGNMENT ( #22, #88, ( #74 ) ) ;
#202 = COORDINATED_UNIVERSAL_TIME_OFFSET ( 1, 0, .AHEAD. ) ;
#203 = ADVANCED_FACE ( 'NONE', ( #31, #96 ), #195, .T. ) ;
#204 = LOCAL_TIME ( 15, 47, 30.00000000000000000, #23 ) ;
#205 = DIRECTION ( 'NONE',  ( 4.275831445896958607E-31, 1.000000000000000000, 1.224646799147353207E-16 ) ) ;
#206 = FACE_OUTER_BOUND ( 'NONE', #93, .T. ) ;
#207 = AXIS2_PLACEMENT_3D ( 'NONE', #153, #97, #209 ) ;
#208 = DIRECTION ( 'NONE',  ( 0.0000000000000000000, 1.000000000000000000, 0.0000000000000000000 ) ) ;
#209 = DIRECTION ( 'NONE',  ( 0.0000000000000000000, 1.000000000000000000, 0.0000000000000000000 ) ) ;
#210 = DIRECTION ( 'NONE',  ( 0.0000000000000000000, -1.000000000000000000, 0.0000000000000000000 ) ) ;
#211 = DATE_TIME_ROLE ( 'classification_date' ) ;
#212 = APPROVAL_STATUS ( 'not_yet_approved' ) ;
#213 = PERSON_AND_ORGANIZATION_ROLE ( 'design_supplier' ) ;
#214 = APPROVAL_ROLE ( '' ) ;
#215 = PRODUCT_DEFINITION ( 'UNKNOWN', '', #25, #161 ) ;
#216 = CONICAL_SURFACE ( 'NONE', #79, 0.3999999999999988565, 0.7853981633974689291 ) ;
#217 = CC_DESIGN_PERSON_AND_ORGANIZATION_ASSIGNMENT ( #178, #138, ( #215 ) ) ;
#218 = LOCAL_TIME ( 15, 47, 30.00000000000000000, #55 ) ;
#219 = FACE_BOUND ( 'NONE', #183, .T. ) ;
#220 = PLANE ( 'NONE',  #46 ) ;
#221 = CIRCLE ( 'NONE', #116, 0.2399999999999994360 ) ;
#222 = CIRCLE ( 'NONE', #73, 0.2399999999999990752 ) ;
#223 = CARTESIAN_POINT ( 'NONE',  ( 1.047444401652940007E-13, 0.3999999999999951927, 30.00000000000000000 ) ) ;
ENDSEC;
END-ISO-10303-21;
