ISO-10303-21;
HEADER;
FILE_DESCRIPTION (( 'STEP AP203' ),
    '1' );
FILE_NAME ('38059.step',
    '2021-10-07T13:47:29',
    ( '' ),
    ( '' ),
    'SwSTEP 2.0',
    'SolidWorks 2019',
    '' );
FILE_SCHEMA (( 'CONFIG_CONTROL_DESIGN' ));
ENDSEC;

DATA;
#1 = PERSON_AND_ORGANIZATION ( #141, #74 ) ;
#2 = MECHANICAL_CONTEXT ( 'NONE', #66, 'mechanical' ) ;
#3 = AXIS2_PLACEMENT_3D ( 'NONE', #192, #72, #142 ) ;
#4 = FACE_OUTER_BOUND ( 'NONE', #196, .T. ) ;
#5 = DATE_AND_TIME ( #102, #152 ) ;
#6 = FACE_OUTER_BOUND ( 'NONE', #35, .T. ) ;
#7 = PLANE ( 'NONE',  #52 ) ;
#8 = DIRECTION ( 'NONE',  ( 3.491481338843133355E-15, -1.224646799147353207E-16, 1.000000000000000000 ) ) ;
#9 = PRODUCT_DEFINITION_FORMATION_WITH_SPECIFIED_SOURCE ( 'ANY', '', #33, .NOT_KNOWN. ) ;
#10 = ADVANCED_FACE ( 'NONE', ( #6, #4 ), #90, .T. ) ;
#11 = SECURITY_CLASSIFICATION ( '', '', #81 ) ;
#12 = CARTESIAN_POINT ( 'NONE',  ( 1.256933281983528008E-14, 0.2349999999999989875, 3.600000000000000089 ) ) ;
#13 = FACE_OUTER_BOUND ( 'NONE', #174, .T. ) ;
#14 = PLANE ( 'NONE',  #215 ) ;
#15 = APPROVAL_DATE_TIME ( #222, #118 ) ;
#16 = PERSON_AND_ORGANIZATION ( #141, #74 ) ;
#17 = ADVANCED_FACE ( 'NONE', ( #106, #24 ), #223, .T. ) ;
#18 = PERSON_AND_ORGANIZATION_ROLE ( 'creator' ) ;
#19 = ORIENTED_EDGE ( 'NONE', *, *, #180, .T. ) ;
#20 = CIRCLE ( 'NONE', #71, 0.2349999999999990707 ) ;
#21 = EDGE_LOOP ( 'NONE', ( #107 ) ) ;
#22 = LOCAL_TIME ( 15, 47, 29.00000000000000000, #85 ) ;
#23 = DESIGN_CONTEXT ( 'detailed design', #143, 'design' ) ;
#24 = FACE_BOUND ( 'NONE', #86, .T. ) ;
#25 = VERTEX_POINT ( 'NONE', #95 ) ;
#26 = DIRECTION ( 'NONE',  ( 0.0000000000000000000, 1.000000000000000000, 0.0000000000000000000 ) ) ;
#27 = ADVANCED_FACE ( 'NONE', ( #13, #184 ), #116, .T. ) ;
#28 = DIRECTION ( 'NONE',  ( 0.0000000000000000000, 1.000000000000000000, 0.0000000000000000000 ) ) ;
#29 = CIRCLE ( 'NONE', #159, 0.3999999999999988565 ) ;
#30 = PERSON_AND_ORGANIZATION ( #141, #74 ) ;
#31 = DIRECTION ( 'NONE',  ( 0.0000000000000000000, 0.0000000000000000000, 1.000000000000000000 ) ) ;
#32 = DATE_AND_TIME ( #97, #176 ) ;
#33 = PRODUCT ( '38059', '38059', '', ( #2 ) ) ;
#34 = AXIS2_PLACEMENT_3D ( 'NONE', #113, #186, #62 ) ;
#35 = EDGE_LOOP ( 'NONE', ( #103 ) ) ;
#36 = AXIS2_PLACEMENT_3D ( 'NONE', #92, #162, #132 ) ;
#37 = MANIFOLD_SOLID_BREP ( 'Corps-Déplacer/Copier1[1]', #214 ) ;
#38 = ORIENTED_EDGE ( 'NONE', *, *, #149, .T. ) ;
#39 = EDGE_LOOP ( 'NONE', ( #194 ) ) ;
#40 = VERTEX_POINT ( 'NONE', #44 ) ;
#41 = AXIS2_PLACEMENT_3D ( 'NONE', #73, #150, #145 ) ;
#42 = APPROVAL ( #119, 'UNSPECIFIED' ) ;
#43 = FACE_BOUND ( 'NONE', #39, .T. ) ;
#44 = CARTESIAN_POINT ( 'NONE',  ( 4.930050050664116459E-16, 0.2349999999999990430, 0.1412022454714776665 ) ) ;
#45 = DIRECTION ( 'NONE',  ( 0.0000000000000000000, 1.000000000000000000, 0.0000000000000000000 ) ) ;
#46 = DIRECTION ( 'NONE',  ( -4.097723285930305261E-31, -1.000000000000000000, -1.153406566473945450E-16 ) ) ;
#47 = DATE_AND_TIME ( #55, #219 ) ;
#48 = DATE_TIME_ROLE ( 'classification_date' ) ;
#49 = ADVANCED_BREP_SHAPE_REPRESENTATION ( '38059', ( #37, #111, #210 ), #112 ) ;
#50 = AXIS2_PLACEMENT_3D ( 'NONE', #110, #59, #26 ) ;
#51 = ADVANCED_FACE ( 'NONE', ( #202 ), #7, .T. ) ;
#52 = AXIS2_PLACEMENT_3D ( 'NONE', #133, #8, #203 ) ;
#53 = APPROVAL_STATUS ( 'not_yet_approved' ) ;
#54 = APPLICATION_PROTOCOL_DEFINITION ( 'international standard', 'config_control_design', 1994, #66 ) ;
#55 = CALENDAR_DATE ( 2021, 7, 10 ) ;
#56 = CC_DESIGN_SECURITY_CLASSIFICATION ( #11, ( #9 ) ) ;
#57 = EDGE_LOOP ( 'NONE', ( #19 ) ) ;
#58 = EDGE_LOOP ( 'NONE', ( #38 ) ) ;
#59 = DIRECTION ( 'NONE',  ( -3.491481338843133355E-15, 1.224646799147353207E-16, -1.000000000000000000 ) ) ;
#60 = CIRCLE ( 'NONE', #41, 0.4999999999999989453 ) ;
#61 = CARTESIAN_POINT ( 'NONE',  ( 1.047444401652940007E-13, 2.999519565323651582E-33, 30.00000000000000000 ) ) ;
#62 = DIRECTION ( 'NONE',  ( 0.0000000000000000000, -1.000000000000000000, 0.0000000000000000000 ) ) ;
#63 = CARTESIAN_POINT ( 'NONE',  ( 0.0000000000000000000, 0.0000000000000000000, 0.0000000000000000000 ) ) ;
#64 = DIRECTION ( 'NONE',  ( -3.491481338843133355E-15, 1.224646799147353207E-16, -1.000000000000000000 ) ) ;
#65 =( NAMED_UNIT ( * ) SI_UNIT ( $, .STERADIAN. ) SOLID_ANGLE_UNIT ( ) );
#66 = APPLICATION_CONTEXT ( 'configuration controlled 3d designs of mechanical parts and assemblies' ) ;
#67 = DATE_TIME_ROLE ( 'creation_date' ) ;
#68 = ADVANCED_FACE ( 'NONE', ( #200 ), #181, .T. ) ;
#69 = CARTESIAN_POINT ( 'NONE',  ( 1.256933281983528008E-14, 0.2349999999999989875, 3.600000000000000089 ) ) ;
#70 = APPROVAL_ROLE ( '' ) ;
#71 = AXIS2_PLACEMENT_3D ( 'NONE', #213, #64, #117 ) ;
#72 = DIRECTION ( 'NONE',  ( -3.491481338843133355E-15, 1.224646799147353207E-16, -1.000000000000000000 ) ) ;
#73 = CARTESIAN_POINT ( 'NONE',  ( 1.043952920314096936E-13, -3.661693929450586610E-15, 29.90000000000000213 ) ) ;
#74 = ORGANIZATION ( 'UNSPECIFIED', 'UNSPECIFIED', '' ) ;
#75 = DIRECTION ( 'NONE',  ( -3.491481338843133355E-15, 1.224646799147353207E-16, -1.000000000000000000 ) ) ;
#76 = CIRCLE ( 'NONE', #91, 0.2349999999999994316 ) ;
#77 = VERTEX_POINT ( 'NONE', #148 ) ;
#78 = CARTESIAN_POINT ( 'NONE',  ( 4.930050050664115473E-16, -1.729228779490639338E-17, 0.1412022454714776387 ) ) ;
#79 = DIRECTION ( 'NONE',  ( -3.491481338843133355E-15, 1.224646799147353207E-16, -1.000000000000000000 ) ) ;
#80 = AXIS2_PLACEMENT_3D ( 'NONE', #131, #185, #28 ) ;
#81 = SECURITY_CLASSIFICATION_LEVEL ( 'unclassified' ) ;
#82 = PRODUCT_DEFINITION ( 'UNKNOWN', '', #9, #23 ) ;
#83 = PERSON_AND_ORGANIZATION_ROLE ( 'design_owner' ) ;
#84 = PERSON_AND_ORGANIZATION ( #141, #74 ) ;
#85 = COORDINATED_UNIVERSAL_TIME_OFFSET ( 1, 0, .AHEAD. ) ;
#86 = EDGE_LOOP ( 'NONE', ( #212 ) ) ;
#87 = CIRCLE ( 'NONE', #128, 0.4999999999999968914 ) ;
#88 = ADVANCED_FACE ( 'NONE', ( #217 ), #129, .F. ) ;
#89 = EDGE_LOOP ( 'NONE', ( #158 ) ) ;
#90 = CYLINDRICAL_SURFACE ( 'NONE', #3, 0.4999999999999978351 ) ;
#91 = AXIS2_PLACEMENT_3D ( 'NONE', #218, #96, #165 ) ;
#92 = CARTESIAN_POINT ( 'NONE',  ( 1.256933281983527850E-14, -1.328724364577982635E-14, 3.599999999999999645 ) ) ;
#93 = DIRECTION ( 'NONE',  ( 0.0000000000000000000, 1.000000000000000000, 0.0000000000000000000 ) ) ;
#94 = AXIS2_PLACEMENT_3D ( 'NONE', #63, #216, #115 ) ;
#95 = CARTESIAN_POINT ( 'NONE',  ( 1.602238504364924897E-14, 0.4999999999999963363, 4.588993464005769241 ) ) ;
#96 = DIRECTION ( 'NONE',  ( -3.491481338843133355E-15, 1.224646799147353207E-16, -1.000000000000000000 ) ) ;
#97 = CALENDAR_DATE ( 2021, 7, 10 ) ;
#98 = PERSON_AND_ORGANIZATION ( #141, #74 ) ;
#99 = CALENDAR_DATE ( 2021, 7, 10 ) ;
#100 = EDGE_CURVE ( 'NONE', #135, #135, #60, .T. ) ;
#101 = CC_DESIGN_PERSON_AND_ORGANIZATION_ASSIGNMENT ( #168, #190, ( #9 ) ) ;
#102 = CALENDAR_DATE ( 2021, 7, 10 ) ;
#103 = ORIENTED_EDGE ( 'NONE', *, *, #122, .F. ) ;
#104 = LOCAL_TIME ( 15, 47, 29.00000000000000000, #204 ) ;
#105 = CC_DESIGN_APPROVAL ( #42, ( #9 ) ) ;
#106 = FACE_OUTER_BOUND ( 'NONE', #178, .T. ) ;
#107 = ORIENTED_EDGE ( 'NONE', *, *, #114, .T. ) ;
#108 = CC_DESIGN_PERSON_AND_ORGANIZATION_ASSIGNMENT ( #98, #18, ( #82 ) ) ;
#109 = ORIENTED_EDGE ( 'NONE', *, *, #114, .F. ) ;
#110 = CARTESIAN_POINT ( 'NONE',  ( 1.256933281983528008E-14, -4.408728476930471151E-16, 3.600000000000000089 ) ) ;
#111 = MANIFOLD_SOLID_BREP ( 'Corps-Déplacer/Copier1[2]', #208 ) ;
#112 =( GEOMETRIC_REPRESENTATION_CONTEXT ( 3 ) GLOBAL_UNCERTAINTY_ASSIGNED_CONTEXT ( ( #136 ) ) GLOBAL_UNIT_ASSIGNED_CONTEXT ( ( #123, #209, #65 ) ) REPRESENTATION_CONTEXT ( 'NONE', 'WORKASPACE' ) );
#113 = CARTESIAN_POINT ( 'NONE',  ( 1.602238504364924897E-14, -5.619896157002789817E-16, 4.588993464005769241 ) ) ;
#114 = EDGE_CURVE ( 'NONE', #40, #40, #20, .T. ) ;
#115 = DIRECTION ( 'NONE',  ( 4.275831445896957731E-31, 1.000000000000000000, 1.224646799147353207E-16 ) ) ;
#116 = CYLINDRICAL_SURFACE ( 'NONE', #94, 0.2349999999999992650 ) ;
#117 = DIRECTION ( 'NONE',  ( 4.097723285930305261E-31, 1.000000000000000000, 1.153406566473945450E-16 ) ) ;
#118 = APPROVAL ( #188, 'UNSPECIFIED' ) ;
#119 = APPROVAL_STATUS ( 'not_yet_approved' ) ;
#120 = PERSON_AND_ORGANIZATION ( #141, #74 ) ;
#121 = DATE_AND_TIME ( #221, #22 ) ;
#122 = EDGE_CURVE ( 'NONE', #25, #25, #87, .T. ) ;
#123 =( LENGTH_UNIT ( ) NAMED_UNIT ( * ) SI_UNIT ( .MILLI., .METRE. ) );
#124 = APPROVAL_PERSON_ORGANIZATION ( #1, #42, #187 ) ;
#125 = CC_DESIGN_PERSON_AND_ORGANIZATION_ASSIGNMENT ( #84, #205, ( #9 ) ) ;
#126 = ORIENTED_EDGE ( 'NONE', *, *, #100, .T. ) ;
#127 = EDGE_LOOP ( 'NONE', ( #144 ) ) ;
#128 = AXIS2_PLACEMENT_3D ( 'NONE', #151, #75, #45 ) ;
#129 = PLANE ( 'NONE',  #36 ) ;
#130 = PRODUCT_RELATED_PRODUCT_CATEGORY ( 'detail', '', ( #33 ) ) ;
#131 = CARTESIAN_POINT ( 'NONE',  ( 1.047444401652940007E-13, -3.673940397442059178E-15, 30.00000000000000000 ) ) ;
#132 = DIRECTION ( 'NONE',  ( -4.275831445896958607E-31, -1.000000000000000000, -1.224646799147353207E-16 ) ) ;
#133 = CARTESIAN_POINT ( 'NONE',  ( 1.256933281983527850E-14, -1.328724364577982635E-14, 3.599999999999999645 ) ) ;
#134 = PRODUCT_DEFINITION_SHAPE ( 'NONE', 'NONE',  #82 ) ;
#135 = VERTEX_POINT ( 'NONE', #201 ) ;
#136 = UNCERTAINTY_MEASURE_WITH_UNIT (LENGTH_MEASURE( 1.000000000000000082E-05 ), #123, 'distance_accuracy_value', 'NONE');
#137 = APPROVAL_DATE_TIME ( #32, #42 ) ;
#138 = CC_DESIGN_PERSON_AND_ORGANIZATION_ASSIGNMENT ( #207, #153, ( #11 ) ) ;
#139 = VERTEX_POINT ( 'NONE', #69 ) ;
#140 = EDGE_LOOP ( 'NONE', ( #160 ) ) ;
#141 = PERSON ( 'UNSPECIFIED', 'UNSPECIFIED', 'UNSPECIFIED', ('UNSPECIFIED'), ('UNSPECIFIED'), ('UNSPECIFIED') ) ;
#142 = DIRECTION ( 'NONE',  ( 4.275831445896958607E-31, 1.000000000000000000, 1.224646799147353207E-16 ) ) ;
#143 = APPLICATION_CONTEXT ( 'configuration controlled 3d designs of mechanical parts and assemblies' ) ;
#144 = ORIENTED_EDGE ( 'NONE', *, *, #149, .F. ) ;
#145 = DIRECTION ( 'NONE',  ( 0.0000000000000000000, 1.000000000000000000, 0.0000000000000000000 ) ) ;
#146 = FACE_OUTER_BOUND ( 'NONE', #89, .T. ) ;
#147 = CC_DESIGN_APPROVAL ( #118, ( #82 ) ) ;
#148 = CARTESIAN_POINT ( 'NONE',  ( 1.047444401652940007E-13, 0.3999999999999951927, 30.00000000000000000 ) ) ;
#149 = EDGE_CURVE ( 'NONE', #164, #164, #195, .T. ) ;
#150 = DIRECTION ( 'NONE',  ( -3.491481338843133355E-15, 1.224646799147353207E-16, -1.000000000000000000 ) ) ;
#151 = CARTESIAN_POINT ( 'NONE',  ( 1.602238504364924897E-14, -5.619896157002789817E-16, 4.588993464005769241 ) ) ;
#152 = LOCAL_TIME ( 15, 47, 29.00000000000000000, #189 ) ;
#153 = PERSON_AND_ORGANIZATION_ROLE ( 'classification_officer' ) ;
#154 = DIRECTION ( 'NONE',  ( 1.000000000000000000, 0.0000000000000000000, 0.0000000000000000000 ) ) ;
#155 = APPROVAL ( #53, 'UNSPECIFIED' ) ;
#156 = APPROVAL_ROLE ( '' ) ;
#157 = CARTESIAN_POINT ( 'NONE',  ( 0.0000000000000000000, 0.0000000000000000000, 0.0000000000000000000 ) ) ;
#158 = ORIENTED_EDGE ( 'NONE', *, *, #122, .T. ) ;
#159 = AXIS2_PLACEMENT_3D ( 'NONE', #182, #183, #93 ) ;
#160 = ORIENTED_EDGE ( 'NONE', *, *, #171, .F. ) ;
#161 = ADVANCED_FACE ( 'NONE', ( #43, #146 ), #175, .T. ) ;
#162 = DIRECTION ( 'NONE',  ( 3.491481338843133355E-15, -1.224646799147353207E-16, 1.000000000000000000 ) ) ;
#163 = FACE_OUTER_BOUND ( 'NONE', #140, .T. ) ;
#164 = VERTEX_POINT ( 'NONE', #12 ) ;
#165 = DIRECTION ( 'NONE',  ( 0.0000000000000000000, 1.000000000000000000, 0.0000000000000000000 ) ) ;
#166 = DIRECTION ( 'NONE',  ( 3.491481338843133355E-15, -1.224646799147353207E-16, 1.000000000000000000 ) ) ;
#167 = APPROVAL_PERSON_ORGANIZATION ( #16, #155, #156 ) ;
#168 = PERSON_AND_ORGANIZATION ( #141, #74 ) ;
#169 = AXIS2_PLACEMENT_3D ( 'NONE', #78, #166, #46 ) ;
#170 = COORDINATED_UNIVERSAL_TIME_OFFSET ( 1, 0, .AHEAD. ) ;
#171 = EDGE_CURVE ( 'NONE', #77, #77, #29, .T. ) ;
#172 = COORDINATED_UNIVERSAL_TIME_OFFSET ( 1, 0, .AHEAD. ) ;
#173 = APPLICATION_PROTOCOL_DEFINITION ( 'international standard', 'config_control_design', 1994, #143 ) ;
#174 = EDGE_LOOP ( 'NONE', ( #109 ) ) ;
#175 = CONICAL_SURFACE ( 'NONE', #34, 0.4999999999999968914, 0.2617993877991428020 ) ;
#176 = LOCAL_TIME ( 15, 47, 29.00000000000000000, #172 ) ;
#177 = CC_DESIGN_DATE_AND_TIME_ASSIGNMENT ( #121, #48, ( #11 ) ) ;
#178 = EDGE_LOOP ( 'NONE', ( #197 ) ) ;
#179 = SHAPE_DEFINITION_REPRESENTATION ( #134, #49 ) ;
#180 = EDGE_CURVE ( 'NONE', #139, #139, #76, .T. ) ;
#181 = CONICAL_SURFACE ( 'NONE', #169, 0.2349999999999990707, 1.029744258676649871 ) ;
#182 = CARTESIAN_POINT ( 'NONE',  ( 1.047444401652940007E-13, -3.673940397442059178E-15, 30.00000000000000000 ) ) ;
#183 = DIRECTION ( 'NONE',  ( -3.491481338843133355E-15, 1.224646799147353207E-16, -1.000000000000000000 ) ) ;
#184 = FACE_OUTER_BOUND ( 'NONE', #58, .T. ) ;
#185 = DIRECTION ( 'NONE',  ( -3.491481338843133355E-15, 1.224646799147353207E-16, -1.000000000000000000 ) ) ;
#186 = DIRECTION ( 'NONE',  ( 3.491481338843133355E-15, -1.224646799147353207E-16, 1.000000000000000000 ) ) ;
#187 = APPROVAL_ROLE ( '' ) ;
#188 = APPROVAL_STATUS ( 'not_yet_approved' ) ;
#189 = COORDINATED_UNIVERSAL_TIME_OFFSET ( 1, 0, .AHEAD. ) ;
#190 = PERSON_AND_ORGANIZATION_ROLE ( 'design_supplier' ) ;
#191 = APPROVAL_DATE_TIME ( #5, #155 ) ;
#192 = CARTESIAN_POINT ( 'NONE',  ( 0.0000000000000000000, 0.0000000000000000000, 0.0000000000000000000 ) ) ;
#193 = CC_DESIGN_PERSON_AND_ORGANIZATION_ASSIGNMENT ( #120, #83, ( #33 ) ) ;
#194 = ORIENTED_EDGE ( 'NONE', *, *, #180, .F. ) ;
#195 = CIRCLE ( 'NONE', #50, 0.2349999999999994316 ) ;
#196 = EDGE_LOOP ( 'NONE', ( #126 ) ) ;
#197 = ORIENTED_EDGE ( 'NONE', *, *, #100, .F. ) ;
#198 = ADVANCED_FACE ( 'NONE', ( #163 ), #14, .F. ) ;
#199 = CC_DESIGN_APPROVAL ( #155, ( #11 ) ) ;
#200 = FACE_OUTER_BOUND ( 'NONE', #21, .T. ) ;
#201 = CARTESIAN_POINT ( 'NONE',  ( 1.043952920314096936E-13, 0.4999999999999952260, 29.90000000000000213 ) ) ;
#202 = FACE_OUTER_BOUND ( 'NONE', #127, .T. ) ;
#203 = DIRECTION ( 'NONE',  ( -4.275831445896958607E-31, -1.000000000000000000, -1.224646799147353207E-16 ) ) ;
#204 = COORDINATED_UNIVERSAL_TIME_OFFSET ( 1, 0, .AHEAD. ) ;
#205 = PERSON_AND_ORGANIZATION_ROLE ( 'creator' ) ;
#206 = APPROVAL_PERSON_ORGANIZATION ( #30, #118, #70 ) ;
#207 = PERSON_AND_ORGANIZATION ( #141, #74 ) ;
#208 = CLOSED_SHELL ( 'NONE', ( #68, #27, #51 ) ) ;
#209 =( NAMED_UNIT ( * ) PLANE_ANGLE_UNIT ( ) SI_UNIT ( $, .RADIAN. ) );
#210 = AXIS2_PLACEMENT_3D ( 'NONE', #157, #31, #154 ) ;
#211 = CC_DESIGN_DATE_AND_TIME_ASSIGNMENT ( #47, #67, ( #82 ) ) ;
#212 = ORIENTED_EDGE ( 'NONE', *, *, #171, .T. ) ;
#213 = CARTESIAN_POINT ( 'NONE',  ( 4.930050050664115473E-16, -1.729228779490639338E-17, 0.1412022454714776387 ) ) ;
#214 = CLOSED_SHELL ( 'NONE', ( #88, #161, #10, #17, #198 ) ) ;
#215 = AXIS2_PLACEMENT_3D ( 'NONE', #61, #79, #220 ) ;
#216 = DIRECTION ( 'NONE',  ( -3.491481338843133355E-15, 1.224646799147353207E-16, -1.000000000000000000 ) ) ;
#217 = FACE_OUTER_BOUND ( 'NONE', #57, .T. ) ;
#218 = CARTESIAN_POINT ( 'NONE',  ( 1.256933281983528008E-14, -4.408728476930471151E-16, 3.600000000000000089 ) ) ;
#219 = LOCAL_TIME ( 15, 47, 29.00000000000000000, #170 ) ;
#220 = DIRECTION ( 'NONE',  ( 4.275831445896958607E-31, 1.000000000000000000, 1.224646799147353207E-16 ) ) ;
#221 = CALENDAR_DATE ( 2021, 7, 10 ) ;
#222 = DATE_AND_TIME ( #99, #104 ) ;
#223 = CONICAL_SURFACE ( 'NONE', #80, 0.3999999999999988565, 0.7853981633974689291 ) ;
ENDSEC;
END-ISO-10303-21;
