ISO-10303-21;
HEADER;
FILE_DESCRIPTION (( 'STEP AP203' ),
    '1' );
FILE_NAME ('38057.step',
    '2021-10-07T13:47:29',
    ( '' ),
    ( '' ),
    'SwSTEP 2.0',
    'SolidWorks 2019',
    '' );
FILE_SCHEMA (( 'CONFIG_CONTROL_DESIGN' ));
ENDSEC;

DATA;
#1 = CARTESIAN_POINT ( 'NONE',  ( 1.047444401652940007E-13, -3.673940397442059178E-15, 30.00000000000000000 ) ) ;
#2 = DIRECTION ( 'NONE',  ( -3.491481338843133355E-15, 1.224646799147353207E-16, -1.000000000000000000 ) ) ;
#3 = ORGANIZATION ( 'UNSPECIFIED', 'UNSPECIFIED', '' ) ;
#4 = PERSON_AND_ORGANIZATION_ROLE ( 'design_supplier' ) ;
#5 = CONICAL_SURFACE ( 'NONE', #87, 0.3999999999999988565, 0.7853981633974689291 ) ;
#6 = CC_DESIGN_DATE_AND_TIME_ASSIGNMENT ( #151, #46, ( #74 ) ) ;
#7 = APPROVAL_DATE_TIME ( #214, #119 ) ;
#8 = APPROVAL_ROLE ( '' ) ;
#9 = APPLICATION_PROTOCOL_DEFINITION ( 'international standard', 'config_control_design', 1994, #117 ) ;
#10 = DATE_AND_TIME ( #154, #126 ) ;
#11 = AXIS2_PLACEMENT_3D ( 'NONE', #75, #95, #37 ) ;
#12 = ORIENTED_EDGE ( 'NONE', *, *, #54, .F. ) ;
#13 = EDGE_LOOP ( 'NONE', ( #12 ) ) ;
#14 = VERTEX_POINT ( 'NONE', #93 ) ;
#15 = DIRECTION ( 'NONE',  ( 3.491481338843133355E-15, -1.224646799147353207E-16, 1.000000000000000000 ) ) ;
#16 = CARTESIAN_POINT ( 'NONE',  ( 1.043952920314096936E-13, -3.661693929450586610E-15, 29.90000000000000213 ) ) ;
#17 = CIRCLE ( 'NONE', #152, 0.3999999999999988565 ) ;
#18 = DIRECTION ( 'NONE',  ( -3.491481338843133355E-15, 1.224646799147353207E-16, -1.000000000000000000 ) ) ;
#19 = CYLINDRICAL_SURFACE ( 'NONE', #100, 0.4999999999999978351 ) ;
#20 = CC_DESIGN_PERSON_AND_ORGANIZATION_ASSIGNMENT ( #177, #179, ( #204 ) ) ;
#21 = DIRECTION ( 'NONE',  ( 1.000000000000000000, 0.0000000000000000000, 0.0000000000000000000 ) ) ;
#22 = APPROVAL_PERSON_ORGANIZATION ( #132, #185, #8 ) ;
#23 = COORDINATED_UNIVERSAL_TIME_OFFSET ( 1, 0, .AHEAD. ) ;
#24 = LOCAL_TIME ( 15, 47, 29.00000000000000000, #213 ) ;
#25 = CALENDAR_DATE ( 2021, 7, 10 ) ;
#26 = DIRECTION ( 'NONE',  ( 0.0000000000000000000, 0.0000000000000000000, 1.000000000000000000 ) ) ;
#27 = DIRECTION ( 'NONE',  ( 3.491481338843133355E-15, -1.224646799147353207E-16, 1.000000000000000000 ) ) ;
#28 = SHAPE_DEFINITION_REPRESENTATION ( #194, #55 ) ;
#29 = EDGE_LOOP ( 'NONE', ( #92 ) ) ;
#30 = CONICAL_SURFACE ( 'NONE', #64, 0.4999999999999968914, 0.2617993877991427465 ) ;
#31 = MANIFOLD_SOLID_BREP ( 'Corps-Déplacer/Copier1[2]', #144 ) ;
#32 = EDGE_LOOP ( 'NONE', ( #51 ) ) ;
#33 = ORIENTED_EDGE ( 'NONE', *, *, #153, .T. ) ;
#34 = DIRECTION ( 'NONE',  ( -3.491481338843133355E-15, 1.224646799147353207E-16, -1.000000000000000000 ) ) ;
#35 = ADVANCED_FACE ( 'NONE', ( #86 ), #203, .T. ) ;
#36 = DIRECTION ( 'NONE',  ( -3.491481338843133355E-15, 1.224646799147353207E-16, -1.000000000000000000 ) ) ;
#37 = DIRECTION ( 'NONE',  ( -4.275831445896958607E-31, -1.000000000000000000, -1.224646799147353207E-16 ) ) ;
#38 = MANIFOLD_SOLID_BREP ( 'Corps-Déplacer/Copier1[1]', #209 ) ;
#39 = DIRECTION ( 'NONE',  ( -3.491481338843133355E-15, 1.224646799147353207E-16, -1.000000000000000000 ) ) ;
#40 = CC_DESIGN_PERSON_AND_ORGANIZATION_ASSIGNMENT ( #197, #4, ( #199 ) ) ;
#41 = FACE_OUTER_BOUND ( 'NONE', #90, .T. ) ;
#42 = APPROVAL_ROLE ( '' ) ;
#43 = VERTEX_POINT ( 'NONE', #44 ) ;
#44 = CARTESIAN_POINT ( 'NONE',  ( 1.047444401652940007E-13, 0.3999999999999951927, 30.00000000000000000 ) ) ;
#45 = PRODUCT_RELATED_PRODUCT_CATEGORY ( 'detail', '', ( #178 ) ) ;
#46 = DATE_TIME_ROLE ( 'creation_date' ) ;
#47 = CC_DESIGN_APPROVAL ( #59, ( #74 ) ) ;
#48 = ADVANCED_FACE ( 'NONE', ( #50 ), #122, .F. ) ;
#49 = EDGE_LOOP ( 'NONE', ( #107 ) ) ;
#50 = FACE_OUTER_BOUND ( 'NONE', #67, .T. ) ;
#51 = ORIENTED_EDGE ( 'NONE', *, *, #91, .T. ) ;
#52 = CARTESIAN_POINT ( 'NONE',  ( 1.608753697240045724E-14, -5.642748377381513025E-16, 4.607653718043613900 ) ) ;
#53 = CIRCLE ( 'NONE', #190, 0.4999999999999968914 ) ;
#54 = EDGE_CURVE ( 'NONE', #14, #14, #131, .T. ) ;
#55 = ADVANCED_BREP_SHAPE_REPRESENTATION ( '38057', ( #38, #31, #150 ), #68 ) ;
#56 = DIRECTION ( 'NONE',  ( -3.491481338843133355E-15, 1.224646799147353207E-16, -1.000000000000000000 ) ) ;
#57 = DIRECTION ( 'NONE',  ( -3.491481338843133355E-15, 1.224646799147353207E-16, -1.000000000000000000 ) ) ;
#58 = FACE_OUTER_BOUND ( 'NONE', #124, .T. ) ;
#59 = APPROVAL ( #82, 'UNSPECIFIED' ) ;
#60 = DIRECTION ( 'NONE',  ( -4.275831445896958607E-31, -1.000000000000000000, -1.224646799147353207E-16 ) ) ;
#61 = APPLICATION_CONTEXT ( 'configuration controlled 3d designs of mechanical parts and assemblies' ) ;
#62 = DATE_TIME_ROLE ( 'classification_date' ) ;
#63 = APPLICATION_PROTOCOL_DEFINITION ( 'international standard', 'config_control_design', 1994, #61 ) ;
#64 = AXIS2_PLACEMENT_3D ( 'NONE', #175, #162, #192 ) ;
#65 = PERSON_AND_ORGANIZATION ( #212, #3 ) ;
#66 = PERSON_AND_ORGANIZATION ( #212, #3 ) ;
#67 = EDGE_LOOP ( 'NONE', ( #217 ) ) ;
#68 =( GEOMETRIC_REPRESENTATION_CONTEXT ( 3 ) GLOBAL_UNCERTAINTY_ASSIGNED_CONTEXT ( ( #168 ) ) GLOBAL_UNIT_ASSIGNED_CONTEXT ( ( #118, #210, #135 ) ) REPRESENTATION_CONTEXT ( 'NONE', 'WORKASPACE' ) );
#69 = EDGE_LOOP ( 'NONE', ( #219 ) ) ;
#70 = EDGE_LOOP ( 'NONE', ( #169 ) ) ;
#71 = AXIS2_PLACEMENT_3D ( 'NONE', #121, #27, #158 ) ;
#72 = ORIENTED_EDGE ( 'NONE', *, *, #91, .F. ) ;
#73 = DIRECTION ( 'NONE',  ( 4.275831445896958607E-31, 1.000000000000000000, 1.224646799147353207E-16 ) ) ;
#74 = PRODUCT_DEFINITION ( 'UNKNOWN', '', #199, #128 ) ;
#75 = CARTESIAN_POINT ( 'NONE',  ( 1.256933281983527850E-14, -1.357609676851416752E-14, 3.599999999999999645 ) ) ;
#76 = DIRECTION ( 'NONE',  ( 4.275831445896958607E-31, 1.000000000000000000, 1.224646799147352961E-16 ) ) ;
#77 = CARTESIAN_POINT ( 'NONE',  ( 4.825155368735091655E-16, -1.692436677799349604E-17, 0.1381979423763398385 ) ) ;
#78 = FACE_OUTER_BOUND ( 'NONE', #88, .T. ) ;
#79 = APPROVAL_ROLE ( '' ) ;
#80 = CC_DESIGN_DATE_AND_TIME_ASSIGNMENT ( #211, #62, ( #204 ) ) ;
#81 = COORDINATED_UNIVERSAL_TIME_OFFSET ( 1, 0, .AHEAD. ) ;
#82 = APPROVAL_STATUS ( 'not_yet_approved' ) ;
#83 = AXIS2_PLACEMENT_3D ( 'NONE', #208, #15, #60 ) ;
#84 = ADVANCED_FACE ( 'NONE', ( #41, #164 ), #206, .T. ) ;
#85 = CALENDAR_DATE ( 2021, 7, 10 ) ;
#86 = FACE_OUTER_BOUND ( 'NONE', #70, .T. ) ;
#87 = AXIS2_PLACEMENT_3D ( 'NONE', #1, #57, #173 ) ;
#88 = EDGE_LOOP ( 'NONE', ( #106 ) ) ;
#89 = APPROVAL_PERSON_ORGANIZATION ( #134, #59, #79 ) ;
#90 = EDGE_LOOP ( 'NONE', ( #183 ) ) ;
#91 = EDGE_CURVE ( 'NONE', #94, #94, #53, .T. ) ;
#92 = ORIENTED_EDGE ( 'NONE', *, *, #180, .F. ) ;
#93 = CARTESIAN_POINT ( 'NONE',  ( 1.256933281983528008E-14, 0.2299999999999990941, 3.600000000000000089 ) ) ;
#94 = VERTEX_POINT ( 'NONE', #160 ) ;
#95 = DIRECTION ( 'NONE',  ( 3.491481338843133355E-15, -1.224646799147353207E-16, 1.000000000000000000 ) ) ;
#96 = CC_DESIGN_PERSON_AND_ORGANIZATION_ASSIGNMENT ( #195, #165, ( #74 ) ) ;
#97 = CARTESIAN_POINT ( 'NONE',  ( 0.0000000000000000000, 0.0000000000000000000, 0.0000000000000000000 ) ) ;
#98 = CARTESIAN_POINT ( 'NONE',  ( 1.047444401652940007E-13, 2.999519565323651582E-33, 30.00000000000000000 ) ) ;
#99 = APPROVAL_DATE_TIME ( #10, #59 ) ;
#100 = AXIS2_PLACEMENT_3D ( 'NONE', #171, #2, #127 ) ;
#101 = APPROVAL_STATUS ( 'not_yet_approved' ) ;
#102 = COORDINATED_UNIVERSAL_TIME_OFFSET ( 1, 0, .AHEAD. ) ;
#103 = LOCAL_TIME ( 15, 47, 29.00000000000000000, #23 ) ;
#104 = CALENDAR_DATE ( 2021, 7, 10 ) ;
#105 = CIRCLE ( 'NONE', #184, 0.2299999999999995104 ) ;
#106 = ORIENTED_EDGE ( 'NONE', *, *, #54, .T. ) ;
#107 = ORIENTED_EDGE ( 'NONE', *, *, #180, .T. ) ;
#108 = APPROVAL_PERSON_ORGANIZATION ( #120, #119, #42 ) ;
#109 = EDGE_LOOP ( 'NONE', ( #167 ) ) ;
#110 = DIRECTION ( 'NONE',  ( -3.491481338843133355E-15, 1.224646799147353207E-16, -1.000000000000000000 ) ) ;
#111 = FACE_OUTER_BOUND ( 'NONE', #29, .T. ) ;
#112 = FACE_OUTER_BOUND ( 'NONE', #32, .T. ) ;
#113 = DIRECTION ( 'NONE',  ( -3.491481338843133355E-15, 1.224646799147353207E-16, -1.000000000000000000 ) ) ;
#114 = SECURITY_CLASSIFICATION_LEVEL ( 'unclassified' ) ;
#115 = CIRCLE ( 'NONE', #222, 0.4999999999999989453 ) ;
#116 = MECHANICAL_CONTEXT ( 'NONE', #117, 'mechanical' ) ;
#117 = APPLICATION_CONTEXT ( 'configuration controlled 3d designs of mechanical parts and assemblies' ) ;
#118 =( LENGTH_UNIT ( ) NAMED_UNIT ( * ) SI_UNIT ( .MILLI., .METRE. ) );
#119 = APPROVAL ( #166, 'UNSPECIFIED' ) ;
#120 = PERSON_AND_ORGANIZATION ( #212, #3 ) ;
#121 = CARTESIAN_POINT ( 'NONE',  ( 4.825155368735091655E-16, -1.692436677799349604E-17, 0.1381979423763398385 ) ) ;
#122 = PLANE ( 'NONE',  #156 ) ;
#123 = CC_DESIGN_PERSON_AND_ORGANIZATION_ASSIGNMENT ( #65, #193, ( #178 ) ) ;
#124 = EDGE_LOOP ( 'NONE', ( #72 ) ) ;
#125 = DIRECTION ( 'NONE',  ( 0.0000000000000000000, 1.000000000000000000, 0.0000000000000000000 ) ) ;
#126 = LOCAL_TIME ( 15, 47, 29.00000000000000000, #102 ) ;
#127 = DIRECTION ( 'NONE',  ( 4.275831445896958607E-31, 1.000000000000000000, 1.224646799147353207E-16 ) ) ;
#128 = DESIGN_CONTEXT ( 'detailed design', #61, 'design' ) ;
#129 = DIRECTION ( 'NONE',  ( 4.186804226928789587E-31, 1.000000000000000000, 1.178480622266857147E-16 ) ) ;
#130 = FACE_OUTER_BOUND ( 'NONE', #201, .T. ) ;
#131 = CIRCLE ( 'NONE', #191, 0.2299999999999995104 ) ;
#132 = PERSON_AND_ORGANIZATION ( #212, #3 ) ;
#133 = AXIS2_PLACEMENT_3D ( 'NONE', #77, #34, #129 ) ;
#134 = PERSON_AND_ORGANIZATION ( #212, #3 ) ;
#135 =( NAMED_UNIT ( * ) SI_UNIT ( $, .STERADIAN. ) SOLID_ANGLE_UNIT ( ) );
#136 = PERSON_AND_ORGANIZATION_ROLE ( 'creator' ) ;
#137 = LOCAL_TIME ( 15, 47, 29.00000000000000000, #81 ) ;
#138 = AXIS2_PLACEMENT_3D ( 'NONE', #97, #202, #76 ) ;
#139 = DATE_AND_TIME ( #104, #137 ) ;
#140 = ADVANCED_FACE ( 'NONE', ( #186, #163 ), #5, .T. ) ;
#141 = CARTESIAN_POINT ( 'NONE',  ( 1.043952920314096936E-13, 0.4999999999999952260, 29.90000000000000213 ) ) ;
#142 = LOCAL_TIME ( 15, 47, 29.00000000000000000, #181 ) ;
#143 = VERTEX_POINT ( 'NONE', #205 ) ;
#144 = CLOSED_SHELL ( 'NONE', ( #35, #84, #170 ) ) ;
#145 = DIRECTION ( 'NONE',  ( 0.0000000000000000000, 1.000000000000000000, 0.0000000000000000000 ) ) ;
#146 = CARTESIAN_POINT ( 'NONE',  ( 1.047444401652940007E-13, -3.673940397442059178E-15, 30.00000000000000000 ) ) ;
#147 = PLANE ( 'NONE',  #83 ) ;
#148 = CC_DESIGN_PERSON_AND_ORGANIZATION_ASSIGNMENT ( #66, #136, ( #199 ) ) ;
#149 = CIRCLE ( 'NONE', #133, 0.2299999999999991218 ) ;
#150 = AXIS2_PLACEMENT_3D ( 'NONE', #196, #26, #21 ) ;
#151 = DATE_AND_TIME ( #155, #24 ) ;
#152 = AXIS2_PLACEMENT_3D ( 'NONE', #146, #110, #207 ) ;
#153 = EDGE_CURVE ( 'NONE', #220, #220, #115, .T. ) ;
#154 = CALENDAR_DATE ( 2021, 7, 10 ) ;
#155 = CALENDAR_DATE ( 2021, 7, 10 ) ;
#156 = AXIS2_PLACEMENT_3D ( 'NONE', #98, #39, #73 ) ;
#157 = CC_DESIGN_SECURITY_CLASSIFICATION ( #204, ( #199 ) ) ;
#158 = DIRECTION ( 'NONE',  ( -4.186804226928789587E-31, -1.000000000000000000, -1.178480622266857147E-16 ) ) ;
#159 = EDGE_CURVE ( 'NONE', #161, #161, #149, .T. ) ;
#160 = CARTESIAN_POINT ( 'NONE',  ( 1.608753697240045724E-14, 0.4999999999999963363, 4.607653718043613900 ) ) ;
#161 = VERTEX_POINT ( 'NONE', #221 ) ;
#162 = DIRECTION ( 'NONE',  ( 3.491481338843133355E-15, -1.224646799147353207E-16, 1.000000000000000000 ) ) ;
#163 = FACE_BOUND ( 'NONE', #109, .T. ) ;
#164 = FACE_OUTER_BOUND ( 'NONE', #49, .T. ) ;
#165 = PERSON_AND_ORGANIZATION_ROLE ( 'creator' ) ;
#166 = APPROVAL_STATUS ( 'not_yet_approved' ) ;
#167 = ORIENTED_EDGE ( 'NONE', *, *, #182, .T. ) ;
#168 = UNCERTAINTY_MEASURE_WITH_UNIT (LENGTH_MEASURE( 1.000000000000000082E-05 ), #118, 'distance_accuracy_value', 'NONE');
#169 = ORIENTED_EDGE ( 'NONE', *, *, #159, .T. ) ;
#170 = ADVANCED_FACE ( 'NONE', ( #111 ), #188, .T. ) ;
#171 = CARTESIAN_POINT ( 'NONE',  ( 0.0000000000000000000, 0.0000000000000000000, 0.0000000000000000000 ) ) ;
#172 = ADVANCED_FACE ( 'NONE', ( #223, #112 ), #30, .T. ) ;
#173 = DIRECTION ( 'NONE',  ( 0.0000000000000000000, 1.000000000000000000, 0.0000000000000000000 ) ) ;
#174 = DIRECTION ( 'NONE',  ( 0.0000000000000000000, 1.000000000000000000, 0.0000000000000000000 ) ) ;
#175 = CARTESIAN_POINT ( 'NONE',  ( 1.608753697240045724E-14, -5.642748377381513025E-16, 4.607653718043613900 ) ) ;
#176 = CARTESIAN_POINT ( 'NONE',  ( 1.256933281983528008E-14, -4.408728476930471151E-16, 3.600000000000000089 ) ) ;
#177 = PERSON_AND_ORGANIZATION ( #212, #3 ) ;
#178 = PRODUCT ( '38057', '38057', '', ( #116 ) ) ;
#179 = PERSON_AND_ORGANIZATION_ROLE ( 'classification_officer' ) ;
#180 = EDGE_CURVE ( 'NONE', #143, #143, #105, .T. ) ;
#181 = COORDINATED_UNIVERSAL_TIME_OFFSET ( 1, 0, .AHEAD. ) ;
#182 = EDGE_CURVE ( 'NONE', #43, #43, #17, .T. ) ;
#183 = ORIENTED_EDGE ( 'NONE', *, *, #159, .F. ) ;
#184 = AXIS2_PLACEMENT_3D ( 'NONE', #176, #18, #189 ) ;
#185 = APPROVAL ( #101, 'UNSPECIFIED' ) ;
#186 = FACE_OUTER_BOUND ( 'NONE', #69, .T. ) ;
#187 = CARTESIAN_POINT ( 'NONE',  ( 1.256933281983528008E-14, -4.408728476930471151E-16, 3.600000000000000089 ) ) ;
#188 = PLANE ( 'NONE',  #11 ) ;
#189 = DIRECTION ( 'NONE',  ( 0.0000000000000000000, 1.000000000000000000, 0.0000000000000000000 ) ) ;
#190 = AXIS2_PLACEMENT_3D ( 'NONE', #52, #36, #125 ) ;
#191 = AXIS2_PLACEMENT_3D ( 'NONE', #187, #113, #174 ) ;
#192 = DIRECTION ( 'NONE',  ( 0.0000000000000000000, -1.000000000000000000, 0.0000000000000000000 ) ) ;
#193 = PERSON_AND_ORGANIZATION_ROLE ( 'design_owner' ) ;
#194 = PRODUCT_DEFINITION_SHAPE ( 'NONE', 'NONE',  #74 ) ;
#195 = PERSON_AND_ORGANIZATION ( #212, #3 ) ;
#196 = CARTESIAN_POINT ( 'NONE',  ( 0.0000000000000000000, 0.0000000000000000000, 0.0000000000000000000 ) ) ;
#197 = PERSON_AND_ORGANIZATION ( #212, #3 ) ;
#198 = CC_DESIGN_APPROVAL ( #119, ( #199 ) ) ;
#199 = PRODUCT_DEFINITION_FORMATION_WITH_SPECIFIED_SOURCE ( 'ANY', '', #178, .NOT_KNOWN. ) ;
#200 = APPROVAL_DATE_TIME ( #139, #185 ) ;
#201 = EDGE_LOOP ( 'NONE', ( #33 ) ) ;
#202 = DIRECTION ( 'NONE',  ( -3.491481338843133355E-15, 1.224646799147353207E-16, -1.000000000000000000 ) ) ;
#203 = CONICAL_SURFACE ( 'NONE', #71, 0.2299999999999991218, 1.029744258676649649 ) ;
#204 = SECURITY_CLASSIFICATION ( '', '', #114 ) ;
#205 = CARTESIAN_POINT ( 'NONE',  ( 1.256933281983528008E-14, 0.2299999999999990941, 3.600000000000000089 ) ) ;
#206 = CYLINDRICAL_SURFACE ( 'NONE', #138, 0.2299999999999993161 ) ;
#207 = DIRECTION ( 'NONE',  ( 0.0000000000000000000, 1.000000000000000000, 0.0000000000000000000 ) ) ;
#208 = CARTESIAN_POINT ( 'NONE',  ( 1.256933281983527850E-14, -1.357609676851416752E-14, 3.599999999999999645 ) ) ;
#209 = CLOSED_SHELL ( 'NONE', ( #218, #172, #216, #140, #48 ) ) ;
#210 =( NAMED_UNIT ( * ) PLANE_ANGLE_UNIT ( ) SI_UNIT ( $, .RADIAN. ) );
#211 = DATE_AND_TIME ( #25, #103 ) ;
#212 = PERSON ( 'UNSPECIFIED', 'UNSPECIFIED', 'UNSPECIFIED', ('UNSPECIFIED'), ('UNSPECIFIED'), ('UNSPECIFIED') ) ;
#213 = COORDINATED_UNIVERSAL_TIME_OFFSET ( 1, 0, .AHEAD. ) ;
#214 = DATE_AND_TIME ( #85, #142 ) ;
#215 = CC_DESIGN_APPROVAL ( #185, ( #204 ) ) ;
#216 = ADVANCED_FACE ( 'NONE', ( #58, #130 ), #19, .T. ) ;
#217 = ORIENTED_EDGE ( 'NONE', *, *, #182, .F. ) ;
#218 = ADVANCED_FACE ( 'NONE', ( #78 ), #147, .F. ) ;
#219 = ORIENTED_EDGE ( 'NONE', *, *, #153, .F. ) ;
#220 = VERTEX_POINT ( 'NONE', #141 ) ;
#221 = CARTESIAN_POINT ( 'NONE',  ( 4.825155368735092642E-16, 0.2299999999999990941, 0.1381979423763398662 ) ) ;
#222 = AXIS2_PLACEMENT_3D ( 'NONE', #16, #56, #145 ) ;
#223 = FACE_BOUND ( 'NONE', #13, .T. ) ;
ENDSEC;
END-ISO-10303-21;
