ISO-10303-21;
HEADER;
FILE_DESCRIPTION (( 'STEP AP203' ),
    '1' );
FILE_NAME ('38054.step',
    '2021-10-07T13:47:28',
    ( '' ),
    ( '' ),
    'SwSTEP 2.0',
    'SolidWorks 2019',
    '' );
FILE_SCHEMA (( 'CONFIG_CONTROL_DESIGN' ));
ENDSEC;

DATA;
#1 = PERSON_AND_ORGANIZATION ( #216, #52 ) ;
#2 = COORDINATED_UNIVERSAL_TIME_OFFSET ( 1, 0, .AHEAD. ) ;
#3 = ADVANCED_FACE ( 'NONE', ( #43 ), #56, .T. ) ;
#4 = APPLICATION_CONTEXT ( 'configuration controlled 3d designs of mechanical parts and assemblies' ) ;
#5 = EDGE_LOOP ( 'NONE', ( #60 ) ) ;
#6 = SHAPE_DEFINITION_REPRESENTATION ( #57, #194 ) ;
#7 = AXIS2_PLACEMENT_3D ( 'NONE', #49, #120, #63 ) ;
#8 = EDGE_LOOP ( 'NONE', ( #129 ) ) ;
#9 = FACE_OUTER_BOUND ( 'NONE', #111, .T. ) ;
#10 = CC_DESIGN_PERSON_AND_ORGANIZATION_ASSIGNMENT ( #1, #90, ( #84 ) ) ;
#11 = CARTESIAN_POINT ( 'NONE',  ( 1.256933281983527692E-14, 1.687229755494571677E-33, 3.599999999999999201 ) ) ;
#12 = DIRECTION ( 'NONE',  ( 3.491481338843133355E-15, -1.224646799147353207E-16, 1.000000000000000000 ) ) ;
#13 = CARTESIAN_POINT ( 'NONE',  ( 1.615268890115165289E-14, -5.665600597760232288E-16, 4.626313972081455006 ) ) ;
#14 = CYLINDRICAL_SURFACE ( 'NONE', #99, 0.2249999999999982014 ) ;
#15 = AXIS2_PLACEMENT_3D ( 'NONE', #45, #31, #183 ) ;
#16 = COORDINATED_UNIVERSAL_TIME_OFFSET ( 1, 0, .AHEAD. ) ;
#17 = APPLICATION_CONTEXT ( 'configuration controlled 3d designs of mechanical parts and assemblies' ) ;
#18 = COORDINATED_UNIVERSAL_TIME_OFFSET ( 1, 0, .AHEAD. ) ;
#19 = CC_DESIGN_APPROVAL ( #25, ( #96 ) ) ;
#20 = PERSON_AND_ORGANIZATION ( #216, #52 ) ;
#21 = DATE_TIME_ROLE ( 'classification_date' ) ;
#22 = AXIS2_PLACEMENT_3D ( 'NONE', #196, #125, #197 ) ;
#23 = AXIS2_PLACEMENT_3D ( 'NONE', #172, #222, #138 ) ;
#24 = EDGE_LOOP ( 'NONE', ( #193 ) ) ;
#25 = APPROVAL ( #223, 'UNSPECIFIED' ) ;
#26 = CLOSED_SHELL ( 'NONE', ( #101, #162, #210, #212, #42 ) ) ;
#27 = CONICAL_SURFACE ( 'NONE', #35, 0.3999999999999988565, 0.7853981633974689291 ) ;
#28 = FACE_BOUND ( 'NONE', #41, .T. ) ;
#29 = VERTEX_POINT ( 'NONE', #133 ) ;
#30 = VERTEX_POINT ( 'NONE', #103 ) ;
#31 = DIRECTION ( 'NONE',  ( -3.491481338843133355E-15, 1.224646799147353207E-16, -1.000000000000000000 ) ) ;
#32 = MANIFOLD_SOLID_BREP ( 'Corps-Déplacer/Copier1[1]', #26 ) ;
#33 = MANIFOLD_SOLID_BREP ( 'Corps-Déplacer/Copier1[2]', #149 ) ;
#34 = DIRECTION ( 'NONE',  ( -3.491481338843133355E-15, 1.224646799147353207E-16, -1.000000000000000000 ) ) ;
#35 = AXIS2_PLACEMENT_3D ( 'NONE', #83, #132, #202 ) ;
#36 = APPROVAL_ROLE ( '' ) ;
#37 = CALENDAR_DATE ( 2021, 7, 10 ) ;
#38 = PERSON_AND_ORGANIZATION ( #216, #52 ) ;
#39 = DATE_TIME_ROLE ( 'creation_date' ) ;
#40 = DATE_AND_TIME ( #195, #67 ) ;
#41 = EDGE_LOOP ( 'NONE', ( #146 ) ) ;
#42 = ADVANCED_FACE ( 'NONE', ( #181 ), #124, .F. ) ;
#43 = FACE_OUTER_BOUND ( 'NONE', #77, .T. ) ;
#44 = DIRECTION ( 'NONE',  ( 0.0000000000000000000, 1.000000000000000000, 0.0000000000000000000 ) ) ;
#45 = CARTESIAN_POINT ( 'NONE',  ( 1.043952920314096936E-13, -3.661693929450586610E-15, 29.90000000000000213 ) ) ;
#46 = CARTESIAN_POINT ( 'NONE',  ( 1.047444401652940007E-13, 0.3999999999999951927, 30.00000000000000000 ) ) ;
#47 = APPROVAL_PERSON_ORGANIZATION ( #161, #156, #106 ) ;
#48 = DIRECTION ( 'NONE',  ( 3.491481338843133355E-15, -1.224646799147353207E-16, 1.000000000000000000 ) ) ;
#49 = CARTESIAN_POINT ( 'NONE',  ( 1.256933281983527692E-14, 1.687229755494571677E-33, 3.599999999999999201 ) ) ;
#50 = APPROVAL ( #160, 'UNSPECIFIED' ) ;
#51 = VERTEX_POINT ( 'NONE', #92 ) ;
#52 = ORGANIZATION ( 'UNSPECIFIED', 'UNSPECIFIED', '' ) ;
#53 = PERSON_AND_ORGANIZATION ( #216, #52 ) ;
#54 = PERSON_AND_ORGANIZATION ( #216, #52 ) ;
#55 = DATE_AND_TIME ( #74, #97 ) ;
#56 = CONICAL_SURFACE ( 'NONE', #22, 0.2249999999999980071, 1.029744258676649649 ) ;
#57 = PRODUCT_DEFINITION_SHAPE ( 'NONE', 'NONE',  #96 ) ;
#58 = ORIENTED_EDGE ( 'NONE', *, *, #82, .T. ) ;
#59 = CC_DESIGN_PERSON_AND_ORGANIZATION_ASSIGNMENT ( #20, #208, ( #96 ) ) ;
#60 = ORIENTED_EDGE ( 'NONE', *, *, #171, .F. ) ;
#61 = CIRCLE ( 'NONE', #73, 0.2249999999999984235 ) ;
#62 = ORIENTED_EDGE ( 'NONE', *, *, #198, .T. ) ;
#63 = DIRECTION ( 'NONE',  ( -4.275831445896958607E-31, -1.000000000000000000, -1.224646799147353207E-16 ) ) ;
#64 = DIRECTION ( 'NONE',  ( 4.275831445896958607E-31, 1.000000000000000000, 1.224646799147353207E-16 ) ) ;
#65 = FACE_BOUND ( 'NONE', #113, .T. ) ;
#66 = CARTESIAN_POINT ( 'NONE',  ( 4.720260686806046144E-16, -1.655644576108051551E-17, 0.1351936392812013721 ) ) ;
#67 = LOCAL_TIME ( 15, 47, 28.00000000000000000, #2 ) ;
#68 = CIRCLE ( 'NONE', #175, 0.2249999999999984235 ) ;
#69 = CARTESIAN_POINT ( 'NONE',  ( 1.256933281983527692E-14, -4.408728476930470165E-16, 3.599999999999999201 ) ) ;
#70 = CC_DESIGN_DATE_AND_TIME_ASSIGNMENT ( #109, #39, ( #96 ) ) ;
#71 = APPLICATION_PROTOCOL_DEFINITION ( 'international standard', 'config_control_design', 1994, #17 ) ;
#72 = SECURITY_CLASSIFICATION_LEVEL ( 'unclassified' ) ;
#73 = AXIS2_PLACEMENT_3D ( 'NONE', #69, #115, #44 ) ;
#74 = CALENDAR_DATE ( 2021, 7, 10 ) ;
#75 = PERSON_AND_ORGANIZATION_ROLE ( 'classification_officer' ) ;
#76 = CONICAL_SURFACE ( 'NONE', #93, 0.4999999999999957812, 0.2617993877991434126 ) ;
#77 = EDGE_LOOP ( 'NONE', ( #58 ) ) ;
#78 = EDGE_LOOP ( 'NONE', ( #62 ) ) ;
#79 = EDGE_LOOP ( 'NONE', ( #199 ) ) ;
#80 = APPROVAL_DATE_TIME ( #40, #156 ) ;
#81 = EDGE_LOOP ( 'NONE', ( #165 ) ) ;
#82 = EDGE_CURVE ( 'NONE', #29, #29, #177, .T. ) ;
#83 = CARTESIAN_POINT ( 'NONE',  ( 1.047444401652940007E-13, -3.673940397442059178E-15, 30.00000000000000000 ) ) ;
#84 = PRODUCT_DEFINITION_FORMATION_WITH_SPECIFIED_SOURCE ( 'ANY', '', #205, .NOT_KNOWN. ) ;
#85 = DIRECTION ( 'NONE',  ( 0.0000000000000000000, 1.000000000000000000, 0.0000000000000000000 ) ) ;
#86 = PRODUCT_RELATED_PRODUCT_CATEGORY ( 'detail', '', ( #205 ) ) ;
#87 = DIRECTION ( 'NONE',  ( -3.491481338843133355E-15, 1.224646799147353207E-16, -1.000000000000000000 ) ) ;
#88 = CARTESIAN_POINT ( 'NONE',  ( 1.256933281983527692E-14, -4.408728476930470165E-16, 3.599999999999999201 ) ) ;
#89 = CIRCLE ( 'NONE', #211, 0.4999999999999957812 ) ;
#90 = PERSON_AND_ORGANIZATION_ROLE ( 'creator' ) ;
#91 = CALENDAR_DATE ( 2021, 7, 10 ) ;
#92 = CARTESIAN_POINT ( 'NONE',  ( 1.043952920314096936E-13, 0.4999999999999952260, 29.90000000000000213 ) ) ;
#93 = AXIS2_PLACEMENT_3D ( 'NONE', #13, #12, #105 ) ;
#94 = PERSON_AND_ORGANIZATION ( #216, #52 ) ;
#95 = APPROVAL_DATE_TIME ( #157, #50 ) ;
#96 = PRODUCT_DEFINITION ( 'UNKNOWN', '', #84, #116 ) ;
#97 = LOCAL_TIME ( 15, 47, 28.00000000000000000, #139 ) ;
#98 = ORIENTED_EDGE ( 'NONE', *, *, #214, .T. ) ;
#99 = AXIS2_PLACEMENT_3D ( 'NONE', #207, #168, #166 ) ;
#100 = DIRECTION ( 'NONE',  ( -3.491481338843133355E-15, 1.224646799147353207E-16, -1.000000000000000000 ) ) ;
#101 = ADVANCED_FACE ( 'NONE', ( #148 ), #201, .F. ) ;
#102 = FACE_OUTER_BOUND ( 'NONE', #5, .T. ) ;
#103 = CARTESIAN_POINT ( 'NONE',  ( 1.256933281983527692E-14, 0.2249999999999979794, 3.599999999999999201 ) ) ;
#104 = CARTESIAN_POINT ( 'NONE',  ( 1.047444401652940007E-13, 2.999519565323651582E-33, 30.00000000000000000 ) ) ;
#105 = DIRECTION ( 'NONE',  ( 0.0000000000000000000, -1.000000000000000000, 0.0000000000000000000 ) ) ;
#106 = APPROVAL_ROLE ( '' ) ;
#107 = APPROVAL_ROLE ( '' ) ;
#108 = LOCAL_TIME ( 15, 47, 28.00000000000000000, #18 ) ;
#109 = DATE_AND_TIME ( #91, #108 ) ;
#110 = ADVANCED_FACE ( 'NONE', ( #117, #169 ), #14, .T. ) ;
#111 = EDGE_LOOP ( 'NONE', ( #128 ) ) ;
#112 = LOCAL_TIME ( 15, 47, 28.00000000000000000, #123 ) ;
#113 = EDGE_LOOP ( 'NONE', ( #142 ) ) ;
#114 = CC_DESIGN_PERSON_AND_ORGANIZATION_ASSIGNMENT ( #122, #75, ( #145 ) ) ;
#115 = DIRECTION ( 'NONE',  ( -3.491481338843133355E-15, 1.224646799147353207E-16, -1.000000000000000000 ) ) ;
#116 = DESIGN_CONTEXT ( 'detailed design', #17, 'design' ) ;
#117 = FACE_OUTER_BOUND ( 'NONE', #24, .T. ) ;
#118 = DIRECTION ( 'NONE',  ( 0.0000000000000000000, 1.000000000000000000, 0.0000000000000000000 ) ) ;
#119 = CARTESIAN_POINT ( 'NONE',  ( 1.256933281983527692E-14, 0.2249999999999979794, 3.599999999999999201 ) ) ;
#120 = DIRECTION ( 'NONE',  ( 3.491481338843133355E-15, -1.224646799147353207E-16, 1.000000000000000000 ) ) ;
#121 = PERSON_AND_ORGANIZATION_ROLE ( 'design_supplier' ) ;
#122 = PERSON_AND_ORGANIZATION ( #216, #52 ) ;
#123 = COORDINATED_UNIVERSAL_TIME_OFFSET ( 1, 0, .AHEAD. ) ;
#124 = PLANE ( 'NONE',  #163 ) ;
#125 = DIRECTION ( 'NONE',  ( 3.491481338843133355E-15, -1.224646799147353207E-16, 1.000000000000000000 ) ) ;
#126 = APPROVAL_PERSON_ORGANIZATION ( #54, #25, #107 ) ;
#127 = UNCERTAINTY_MEASURE_WITH_UNIT (LENGTH_MEASURE( 1.000000000000000082E-05 ), #189, 'distance_accuracy_value', 'NONE');
#128 = ORIENTED_EDGE ( 'NONE', *, *, #214, .F. ) ;
#129 = ORIENTED_EDGE ( 'NONE', *, *, #147, .F. ) ;
#130 = EDGE_CURVE ( 'NONE', #203, #203, #61, .T. ) ;
#131 = DIRECTION ( 'NONE',  ( -4.275831445896958607E-31, -1.000000000000000000, -1.224646799147353207E-16 ) ) ;
#132 = DIRECTION ( 'NONE',  ( -3.491481338843133355E-15, 1.224646799147353207E-16, -1.000000000000000000 ) ) ;
#133 = CARTESIAN_POINT ( 'NONE',  ( 4.720260686806047130E-16, 0.2249999999999979794, 0.1351936392812013998 ) ) ;
#134 = CIRCLE ( 'NONE', #15, 0.4999999999999989453 ) ;
#135 = CARTESIAN_POINT ( 'NONE',  ( 1.615268890115165289E-14, 0.4999999999999952260, 4.626313972081455006 ) ) ;
#136 = CC_DESIGN_PERSON_AND_ORGANIZATION_ASSIGNMENT ( #38, #170, ( #205 ) ) ;
#137 = FACE_OUTER_BOUND ( 'NONE', #78, .T. ) ;
#138 = DIRECTION ( 'NONE',  ( 1.000000000000000000, 0.0000000000000000000, 0.0000000000000000000 ) ) ;
#139 = COORDINATED_UNIVERSAL_TIME_OFFSET ( 1, 0, .AHEAD. ) ;
#140 = MECHANICAL_CONTEXT ( 'NONE', #4, 'mechanical' ) ;
#141 = CC_DESIGN_APPROVAL ( #156, ( #145 ) ) ;
#142 = ORIENTED_EDGE ( 'NONE', *, *, #147, .T. ) ;
#143 = EDGE_LOOP ( 'NONE', ( #98 ) ) ;
#144 = EDGE_LOOP ( 'NONE', ( #180 ) ) ;
#145 = SECURITY_CLASSIFICATION ( '', '', #72 ) ;
#146 = ORIENTED_EDGE ( 'NONE', *, *, #130, .F. ) ;
#147 = EDGE_CURVE ( 'NONE', #187, #187, #185, .T. ) ;
#148 = FACE_OUTER_BOUND ( 'NONE', #144, .T. ) ;
#149 = CLOSED_SHELL ( 'NONE', ( #3, #110, #184 ) ) ;
#150 = PLANE ( 'NONE',  #7 ) ;
#151 = FACE_OUTER_BOUND ( 'NONE', #143, .T. ) ;
#152 = DIRECTION ( 'NONE',  ( -3.491481338843133355E-15, 1.224646799147353207E-16, -1.000000000000000000 ) ) ;
#153 = LOCAL_TIME ( 15, 47, 28.00000000000000000, #16 ) ;
#154 = CARTESIAN_POINT ( 'NONE',  ( 1.047444401652940007E-13, -3.673940397442059178E-15, 30.00000000000000000 ) ) ;
#155 =( NAMED_UNIT ( * ) PLANE_ANGLE_UNIT ( ) SI_UNIT ( $, .RADIAN. ) );
#156 = APPROVAL ( #173, 'UNSPECIFIED' ) ;
#157 = DATE_AND_TIME ( #190, #153 ) ;
#158 =( NAMED_UNIT ( * ) SI_UNIT ( $, .STERADIAN. ) SOLID_ANGLE_UNIT ( ) );
#159 = CC_DESIGN_APPROVAL ( #50, ( #84 ) ) ;
#160 = APPROVAL_STATUS ( 'not_yet_approved' ) ;
#161 = PERSON_AND_ORGANIZATION ( #216, #52 ) ;
#162 = ADVANCED_FACE ( 'NONE', ( #28, #137 ), #76, .T. ) ;
#163 = AXIS2_PLACEMENT_3D ( 'NONE', #104, #34, #182 ) ;
#164 = AXIS2_PLACEMENT_3D ( 'NONE', #154, #100, #221 ) ;
#165 = ORIENTED_EDGE ( 'NONE', *, *, #198, .F. ) ;
#166 = DIRECTION ( 'NONE',  ( 4.275831445896958607E-31, 1.000000000000000000, 1.224646799147353207E-16 ) ) ;
#167 = DIRECTION ( 'NONE',  ( -3.491481338843133355E-15, 1.224646799147353207E-16, -1.000000000000000000 ) ) ;
#168 = DIRECTION ( 'NONE',  ( -3.491481338843133355E-15, 1.224646799147353207E-16, -1.000000000000000000 ) ) ;
#169 = FACE_OUTER_BOUND ( 'NONE', #79, .T. ) ;
#170 = PERSON_AND_ORGANIZATION_ROLE ( 'design_owner' ) ;
#171 = EDGE_CURVE ( 'NONE', #30, #30, #68, .T. ) ;
#172 = CARTESIAN_POINT ( 'NONE',  ( 0.0000000000000000000, 0.0000000000000000000, 0.0000000000000000000 ) ) ;
#173 = APPROVAL_STATUS ( 'not_yet_approved' ) ;
#174 = APPROVAL_DATE_TIME ( #55, #25 ) ;
#175 = AXIS2_PLACEMENT_3D ( 'NONE', #88, #87, #85 ) ;
#176 = DATE_AND_TIME ( #37, #112 ) ;
#177 = CIRCLE ( 'NONE', #209, 0.2249999999999980071 ) ;
#178 = AXIS2_PLACEMENT_3D ( 'NONE', #186, #217, #64 ) ;
#179 = CC_DESIGN_PERSON_AND_ORGANIZATION_ASSIGNMENT ( #53, #121, ( #84 ) ) ;
#180 = ORIENTED_EDGE ( 'NONE', *, *, #130, .T. ) ;
#181 = FACE_OUTER_BOUND ( 'NONE', #8, .T. ) ;
#182 = DIRECTION ( 'NONE',  ( 4.275831445896958607E-31, 1.000000000000000000, 1.224646799147353207E-16 ) ) ;
#183 = DIRECTION ( 'NONE',  ( 0.0000000000000000000, 1.000000000000000000, 0.0000000000000000000 ) ) ;
#184 = ADVANCED_FACE ( 'NONE', ( #102 ), #150, .T. ) ;
#185 = CIRCLE ( 'NONE', #164, 0.3999999999999988565 ) ;
#186 = CARTESIAN_POINT ( 'NONE',  ( 0.0000000000000000000, 0.0000000000000000000, 0.0000000000000000000 ) ) ;
#187 = VERTEX_POINT ( 'NONE', #46 ) ;
#188 = FACE_OUTER_BOUND ( 'NONE', #81, .T. ) ;
#189 =( LENGTH_UNIT ( ) NAMED_UNIT ( * ) SI_UNIT ( .MILLI., .METRE. ) );
#190 = CALENDAR_DATE ( 2021, 7, 10 ) ;
#191 = APPLICATION_PROTOCOL_DEFINITION ( 'international standard', 'config_control_design', 1994, #4 ) ;
#192 = CC_DESIGN_DATE_AND_TIME_ASSIGNMENT ( #176, #21, ( #145 ) ) ;
#193 = ORIENTED_EDGE ( 'NONE', *, *, #82, .F. ) ;
#194 = ADVANCED_BREP_SHAPE_REPRESENTATION ( '38054', ( #32, #33, #23 ), #220 ) ;
#195 = CALENDAR_DATE ( 2021, 7, 10 ) ;
#196 = CARTESIAN_POINT ( 'NONE',  ( 4.720260686806046144E-16, -1.655644576108051551E-17, 0.1351936392812013721 ) ) ;
#197 = DIRECTION ( 'NONE',  ( -4.279844320860561680E-31, -1.000000000000000000, -1.204669080539459944E-16 ) ) ;
#198 = EDGE_CURVE ( 'NONE', #219, #219, #89, .T. ) ;
#199 = ORIENTED_EDGE ( 'NONE', *, *, #171, .T. ) ;
#200 = APPROVAL_PERSON_ORGANIZATION ( #94, #50, #36 ) ;
#201 = PLANE ( 'NONE',  #213 ) ;
#202 = DIRECTION ( 'NONE',  ( 0.0000000000000000000, 1.000000000000000000, 0.0000000000000000000 ) ) ;
#203 = VERTEX_POINT ( 'NONE', #119 ) ;
#204 = CC_DESIGN_SECURITY_CLASSIFICATION ( #145, ( #84 ) ) ;
#205 = PRODUCT ( '38054', '38054', '', ( #140 ) ) ;
#206 = DIRECTION ( 'NONE',  ( 4.279844320860561680E-31, 1.000000000000000000, 1.204669080539459944E-16 ) ) ;
#207 = CARTESIAN_POINT ( 'NONE',  ( 0.0000000000000000000, 0.0000000000000000000, 0.0000000000000000000 ) ) ;
#208 = PERSON_AND_ORGANIZATION_ROLE ( 'creator' ) ;
#209 = AXIS2_PLACEMENT_3D ( 'NONE', #66, #167, #206 ) ;
#210 = ADVANCED_FACE ( 'NONE', ( #188, #151 ), #218, .T. ) ;
#211 = AXIS2_PLACEMENT_3D ( 'NONE', #215, #152, #118 ) ;
#212 = ADVANCED_FACE ( 'NONE', ( #9, #65 ), #27, .T. ) ;
#213 = AXIS2_PLACEMENT_3D ( 'NONE', #11, #48, #131 ) ;
#214 = EDGE_CURVE ( 'NONE', #51, #51, #134, .T. ) ;
#215 = CARTESIAN_POINT ( 'NONE',  ( 1.615268890115165289E-14, -5.665600597760232288E-16, 4.626313972081455006 ) ) ;
#216 = PERSON ( 'UNSPECIFIED', 'UNSPECIFIED', 'UNSPECIFIED', ('UNSPECIFIED'), ('UNSPECIFIED'), ('UNSPECIFIED') ) ;
#217 = DIRECTION ( 'NONE',  ( -3.491481338843133355E-15, 1.224646799147353207E-16, -1.000000000000000000 ) ) ;
#218 = CYLINDRICAL_SURFACE ( 'NONE', #178, 0.4999999999999973910 ) ;
#219 = VERTEX_POINT ( 'NONE', #135 ) ;
#220 =( GEOMETRIC_REPRESENTATION_CONTEXT ( 3 ) GLOBAL_UNCERTAINTY_ASSIGNED_CONTEXT ( ( #127 ) ) GLOBAL_UNIT_ASSIGNED_CONTEXT ( ( #189, #155, #158 ) ) REPRESENTATION_CONTEXT ( 'NONE', 'WORKASPACE' ) );
#221 = DIRECTION ( 'NONE',  ( 0.0000000000000000000, 1.000000000000000000, 0.0000000000000000000 ) ) ;
#222 = DIRECTION ( 'NONE',  ( 0.0000000000000000000, 0.0000000000000000000, 1.000000000000000000 ) ) ;
#223 = APPROVAL_STATUS ( 'not_yet_approved' ) ;
ENDSEC;
END-ISO-10303-21;
