ISO-10303-21;
HEADER;
FILE_DESCRIPTION (( 'STEP AP203' ),
    '1' );
FILE_NAME ('379732.step',
    '2021-12-08T09:33:54',
    ( '' ),
    ( '' ),
    'SwSTEP 2.0',
    'SolidWorks 2019',
    '' );
FILE_SCHEMA (( 'CONFIG_CONTROL_DESIGN' ));
ENDSEC;

DATA;
#1 = PRODUCT_DEFINITION ( 'UNKNOWN', '', #122, #19 ) ;
#2 = APPROVAL_PERSON_ORGANIZATION ( #154, #56, #101 ) ;
#3 = MANIFOLD_SOLID_BREP ( 'Corps-Déplacer/Copier1[1]', #190 ) ;
#4 = VERTEX_POINT ( 'NONE', #152 ) ;
#5 = EDGE_LOOP ( 'NONE', ( #117 ) ) ;
#6 = CALENDAR_DATE ( 2021, 8, 12 ) ;
#7 = COORDINATED_UNIVERSAL_TIME_OFFSET ( 1, 0, .AHEAD. ) ;
#8 = ORIENTED_EDGE ( 'NONE', *, *, #124, .F. ) ;
#9 = APPROVAL_ROLE ( '' ) ;
#10 = FACE_OUTER_BOUND ( 'NONE', #25, .T. ) ;
#11 = CALENDAR_DATE ( 2021, 8, 12 ) ;
#12 = ADVANCED_FACE ( 'NONE', ( #184 ), #73, .F. ) ;
#13 =( GEOMETRIC_REPRESENTATION_CONTEXT ( 3 ) GLOBAL_UNCERTAINTY_ASSIGNED_CONTEXT ( ( #38 ) ) GLOBAL_UNIT_ASSIGNED_CONTEXT ( ( #97, #18, #82 ) ) REPRESENTATION_CONTEXT ( 'NONE', 'WORKASPACE' ) );
#14 = CC_DESIGN_PERSON_AND_ORGANIZATION_ASSIGNMENT ( #87, #146, ( #112 ) ) ;
#15 = FACE_OUTER_BOUND ( 'NONE', #161, .T. ) ;
#16 = EDGE_LOOP ( 'NONE', ( #8 ) ) ;
#17 = DIRECTION ( 'NONE',  ( -3.491481338843133355E-15, 1.224646799147353207E-16, -1.000000000000000000 ) ) ;
#18 =( NAMED_UNIT ( * ) PLANE_ANGLE_UNIT ( ) SI_UNIT ( $, .RADIAN. ) );
#19 = DESIGN_CONTEXT ( 'detailed design', #197, 'design' ) ;
#20 = CC_DESIGN_DATE_AND_TIME_ASSIGNMENT ( #132, #130, ( #1 ) ) ;
#21 = AXIS2_PLACEMENT_3D ( 'NONE', #203, #29, #32 ) ;
#22 = APPROVAL_STATUS ( 'not_yet_approved' ) ;
#23 = DATE_AND_TIME ( #11, #47 ) ;
#24 = DATE_AND_TIME ( #157, #27 ) ;
#25 = EDGE_LOOP ( 'NONE', ( #159 ) ) ;
#26 = SHAPE_DEFINITION_REPRESENTATION ( #153, #118 ) ;
#27 = LOCAL_TIME ( 10, 33, 54.00000000000000000, #39 ) ;
#28 = ADVANCED_FACE ( 'NONE', ( #10 ), #92, .T. ) ;
#29 = DIRECTION ( 'NONE',  ( -3.491481338843133355E-15, 1.224646799147353207E-16, -1.000000000000000000 ) ) ;
#30 = DIRECTION ( 'NONE',  ( -3.491481338843133355E-15, 1.224646799147353207E-16, -1.000000000000000000 ) ) ;
#31 = DIRECTION ( 'NONE',  ( 4.275831445896958607E-31, 1.000000000000000000, 1.224646799147353207E-16 ) ) ;
#32 = DIRECTION ( 'NONE',  ( 0.0000000000000000000, 1.000000000000000000, 0.0000000000000000000 ) ) ;
#33 = FACE_BOUND ( 'NONE', #129, .T. ) ;
#34 = FACE_OUTER_BOUND ( 'NONE', #5, .T. ) ;
#35 = APPROVAL ( #103, 'UNSPECIFIED' ) ;
#36 = CONICAL_SURFACE ( 'NONE', #202, 4.800000000000003375, 0.7853981633974453924 ) ;
#37 = CC_DESIGN_APPROVAL ( #35, ( #122 ) ) ;
#38 = UNCERTAINTY_MEASURE_WITH_UNIT (LENGTH_MEASURE( 1.000000000000000082E-05 ), #97, 'distance_accuracy_value', 'NONE');
#39 = COORDINATED_UNIVERSAL_TIME_OFFSET ( 1, 0, .AHEAD. ) ;
#40 = COORDINATED_UNIVERSAL_TIME_OFFSET ( 1, 0, .AHEAD. ) ;
#41 = APPROVAL ( #181, 'UNSPECIFIED' ) ;
#42 = AXIS2_PLACEMENT_3D ( 'NONE', #106, #46, #109 ) ;
#43 = PERSON_AND_ORGANIZATION ( #50, #93 ) ;
#44 = DIRECTION ( 'NONE',  ( 0.0000000000000000000, 1.000000000000000000, 0.0000000000000000000 ) ) ;
#45 = ORIENTED_EDGE ( 'NONE', *, *, #90, .T. ) ;
#46 = DIRECTION ( 'NONE',  ( -3.491481338843133355E-15, 1.224646799147353207E-16, -1.000000000000000000 ) ) ;
#47 = LOCAL_TIME ( 10, 33, 54.00000000000000000, #7 ) ;
#48 = CARTESIAN_POINT ( 'NONE',  ( 1.780655482809997885E-13, 4.499279347985561328E-32, 51.00000000000000000 ) ) ;
#49 = PLANE ( 'NONE',  #42 ) ;
#50 = PERSON ( 'UNSPECIFIED', 'UNSPECIFIED', 'UNSPECIFIED', ('UNSPECIFIED'), ('UNSPECIFIED'), ('UNSPECIFIED') ) ;
#51 = DIRECTION ( 'NONE',  ( -3.491481338843133355E-15, 1.224646799147353207E-16, -1.000000000000000000 ) ) ;
#52 = AXIS2_PLACEMENT_3D ( 'NONE', #79, #150, #61 ) ;
#53 = PERSON_AND_ORGANIZATION ( #50, #93 ) ;
#54 = EDGE_LOOP ( 'NONE', ( #98 ) ) ;
#55 = DIRECTION ( 'NONE',  ( 0.0000000000000000000, 0.0000000000000000000, 1.000000000000000000 ) ) ;
#56 = APPROVAL ( #22, 'UNSPECIFIED' ) ;
#57 = AXIS2_PLACEMENT_3D ( 'NONE', #107, #60, #44 ) ;
#58 = CC_DESIGN_APPROVAL ( #56, ( #1 ) ) ;
#59 = CARTESIAN_POINT ( 'NONE',  ( -8.551625737720154472E-31, 2.999506533428914479E-32, -2.449282956945045418E-16 ) ) ;
#60 = DIRECTION ( 'NONE',  ( -3.491481338843133355E-15, 1.224646799147353207E-16, -1.000000000000000000 ) ) ;
#61 = DIRECTION ( 'NONE',  ( 4.275831445896959482E-31, 1.000000000000000000, 1.224646799147353207E-16 ) ) ;
#62 = CYLINDRICAL_SURFACE ( 'NONE', #155, 6.000000000000000000 ) ;
#63 = CC_DESIGN_SECURITY_CLASSIFICATION ( #173, ( #122 ) ) ;
#64 = CIRCLE ( 'NONE', #52, 5.999999999999990230 ) ;
#65 = PERSON_AND_ORGANIZATION_ROLE ( 'creator' ) ;
#66 = MECHANICAL_CONTEXT ( 'NONE', #163, 'mechanical' ) ;
#67 = EDGE_CURVE ( 'NONE', #120, #120, #133, .T. ) ;
#68 = DIRECTION ( 'NONE',  ( 1.000000000000000000, 0.0000000000000000000, 0.0000000000000000000 ) ) ;
#69 = MANIFOLD_SOLID_BREP ( 'Corps-Déplacer/Copier1[2]', #74 ) ;
#70 = APPROVAL_ROLE ( '' ) ;
#71 = ORIENTED_EDGE ( 'NONE', *, *, #90, .F. ) ;
#72 = APPROVAL_DATE_TIME ( #116, #41 ) ;
#73 = PLANE ( 'NONE',  #99 ) ;
#74 = CLOSED_SHELL ( 'NONE', ( #12, #151, #28 ) ) ;
#75 = VERTEX_POINT ( 'NONE', #148 ) ;
#76 = FACE_OUTER_BOUND ( 'NONE', #54, .T. ) ;
#77 = EDGE_LOOP ( 'NONE', ( #194 ) ) ;
#78 = CIRCLE ( 'NONE', #110, 5.999999999999996447 ) ;
#79 = CARTESIAN_POINT ( 'NONE',  ( -1.710325147544030894E-30, 5.999013066857828959E-32, -4.898565913890090837E-16 ) ) ;
#80 = CARTESIAN_POINT ( 'NONE',  ( 8.551737199941402409E-31, 5.999999999999990230, 2.449314880994017066E-16 ) ) ;
#81 = APPROVAL_PERSON_ORGANIZATION ( #176, #35, #9 ) ;
#82 =( NAMED_UNIT ( * ) SI_UNIT ( $, .STERADIAN. ) SOLID_ANGLE_UNIT ( ) );
#83 = ADVANCED_FACE ( 'NONE', ( #200 ), #49, .F. ) ;
#84 = LOCAL_TIME ( 10, 33, 54.00000000000000000, #193 ) ;
#85 = ORIENTED_EDGE ( 'NONE', *, *, #67, .F. ) ;
#86 = PERSON_AND_ORGANIZATION ( #50, #93 ) ;
#87 = PERSON_AND_ORGANIZATION ( #50, #93 ) ;
#88 = APPROVAL_PERSON_ORGANIZATION ( #182, #41, #70 ) ;
#89 = DIRECTION ( 'NONE',  ( -3.491481338843133355E-15, 1.224646799147353207E-16, -1.000000000000000000 ) ) ;
#90 = EDGE_CURVE ( 'NONE', #170, #170, #121, .T. ) ;
#91 = PLANE ( 'NONE',  #183 ) ;
#92 = PLANE ( 'NONE',  #145 ) ;
#93 = ORGANIZATION ( 'UNSPECIFIED', 'UNSPECIFIED', '' ) ;
#94 = CARTESIAN_POINT ( 'NONE',  ( 0.0000000000000000000, 0.0000000000000000000, 0.0000000000000000000 ) ) ;
#95 = EDGE_LOOP ( 'NONE', ( #102 ) ) ;
#96 = CARTESIAN_POINT ( 'NONE',  ( 3.491481338843133355E-13, -1.224646799147353217E-14, 100.0000000000000000 ) ) ;
#97 =( LENGTH_UNIT ( ) NAMED_UNIT ( * ) SI_UNIT ( .MILLI., .METRE. ) );
#98 = ORIENTED_EDGE ( 'NONE', *, *, #67, .T. ) ;
#99 = AXIS2_PLACEMENT_3D ( 'NONE', #59, #134, #137 ) ;
#100 = CARTESIAN_POINT ( 'NONE',  ( 0.0000000000000000000, 0.0000000000000000000, 0.0000000000000000000 ) ) ;
#101 = APPROVAL_ROLE ( '' ) ;
#102 = ORIENTED_EDGE ( 'NONE', *, *, #180, .T. ) ;
#103 = APPROVAL_STATUS ( 'not_yet_approved' ) ;
#104 = LOCAL_TIME ( 10, 33, 54.00000000000000000, #128 ) ;
#105 = CC_DESIGN_PERSON_AND_ORGANIZATION_ASSIGNMENT ( #53, #113, ( #122 ) ) ;
#106 = CARTESIAN_POINT ( 'NONE',  ( 3.491481338843133355E-13, 3.599423478388442932E-32, 100.0000000000000000 ) ) ;
#107 = CARTESIAN_POINT ( 'NONE',  ( 3.449583562777016007E-13, -1.209951037557585031E-14, 98.79999999999999716 ) ) ;
#108 = CARTESIAN_POINT ( 'NONE',  ( 0.0000000000000000000, 0.0000000000000000000, 0.0000000000000000000 ) ) ;
#109 = DIRECTION ( 'NONE',  ( 4.275831445896958607E-31, 1.000000000000000000, 1.224646799147353207E-16 ) ) ;
#110 = AXIS2_PLACEMENT_3D ( 'NONE', #164, #30, #135 ) ;
#111 = PERSON_AND_ORGANIZATION_ROLE ( 'design_supplier' ) ;
#112 = PRODUCT ( '379732', '379732', '', ( #66 ) ) ;
#113 = PERSON_AND_ORGANIZATION_ROLE ( 'creator' ) ;
#114 = EDGE_LOOP ( 'NONE', ( #71 ) ) ;
#115 = SECURITY_CLASSIFICATION_LEVEL ( 'unclassified' ) ;
#116 = DATE_AND_TIME ( #160, #138 ) ;
#117 = ORIENTED_EDGE ( 'NONE', *, *, #124, .T. ) ;
#118 = ADVANCED_BREP_SHAPE_REPRESENTATION ( '379732', ( #3, #69, #178 ), #13 ) ;
#119 = CYLINDRICAL_SURFACE ( 'NONE', #174, 5.999999999999992895 ) ;
#120 = VERTEX_POINT ( 'NONE', #187 ) ;
#121 = CIRCLE ( 'NONE', #21, 4.800000000000003375 ) ;
#122 = PRODUCT_DEFINITION_FORMATION_WITH_SPECIFIED_SOURCE ( 'ANY', '', #112, .NOT_KNOWN. ) ;
#123 = FACE_OUTER_BOUND ( 'NONE', #186, .T. ) ;
#124 = EDGE_CURVE ( 'NONE', #75, #75, #172, .T. ) ;
#125 = CC_DESIGN_DATE_AND_TIME_ASSIGNMENT ( #24, #162, ( #173 ) ) ;
#126 = DATE_AND_TIME ( #195, #84 ) ;
#127 = PRODUCT_RELATED_PRODUCT_CATEGORY ( 'detail', '', ( #112 ) ) ;
#128 = COORDINATED_UNIVERSAL_TIME_OFFSET ( 1, 0, .AHEAD. ) ;
#129 = EDGE_LOOP ( 'NONE', ( #45 ) ) ;
#130 = DATE_TIME_ROLE ( 'creation_date' ) ;
#131 = DIRECTION ( 'NONE',  ( 3.491481338843133355E-15, -1.224646799147353207E-16, 1.000000000000000000 ) ) ;
#132 = DATE_AND_TIME ( #6, #104 ) ;
#133 = CIRCLE ( 'NONE', #57, 6.000000000000002665 ) ;
#134 = DIRECTION ( 'NONE',  ( 3.491481338843133355E-15, -1.224646799147353207E-16, 1.000000000000000000 ) ) ;
#135 = DIRECTION ( 'NONE',  ( 0.0000000000000000000, 1.000000000000000000, 0.0000000000000000000 ) ) ;
#136 = DIRECTION ( 'NONE',  ( 3.491481338843133355E-15, -1.224646799147353207E-16, 1.000000000000000000 ) ) ;
#137 = DIRECTION ( 'NONE',  ( -4.275831445896958607E-31, -1.000000000000000000, -1.224646799147353207E-16 ) ) ;
#138 = LOCAL_TIME ( 10, 33, 54.00000000000000000, #40 ) ;
#139 = DIRECTION ( 'NONE',  ( 0.0000000000000000000, 1.000000000000000000, 0.0000000000000000000 ) ) ;
#140 = APPLICATION_PROTOCOL_DEFINITION ( 'international standard', 'config_control_design', 1994, #163 ) ;
#141 = CC_DESIGN_PERSON_AND_ORGANIZATION_ASSIGNMENT ( #179, #144, ( #173 ) ) ;
#142 = APPLICATION_PROTOCOL_DEFINITION ( 'international standard', 'config_control_design', 1994, #197 ) ;
#143 = EDGE_CURVE ( 'NONE', #4, #4, #78, .T. ) ;
#144 = PERSON_AND_ORGANIZATION_ROLE ( 'classification_officer' ) ;
#145 = AXIS2_PLACEMENT_3D ( 'NONE', #48, #131, #169 ) ;
#146 = PERSON_AND_ORGANIZATION_ROLE ( 'design_owner' ) ;
#147 = CARTESIAN_POINT ( 'NONE',  ( 3.491481338843133355E-13, 4.799999999999990941, 100.0000000000000000 ) ) ;
#148 = CARTESIAN_POINT ( 'NONE',  ( 1.780655482809997885E-13, 5.999999999999990230, 51.00000000000000000 ) ) ;
#149 = AXIS2_PLACEMENT_3D ( 'NONE', #185, #89, #188 ) ;
#150 = DIRECTION ( 'NONE',  ( -3.491481338843133355E-15, 1.224646799147353207E-16, -1.000000000000000000 ) ) ;
#151 = ADVANCED_FACE ( 'NONE', ( #199, #123 ), #119, .T. ) ;
#152 = CARTESIAN_POINT ( 'NONE',  ( 1.780655482809997885E-13, 5.999999999999990230, 51.00000000000000000 ) ) ;
#153 = PRODUCT_DEFINITION_SHAPE ( 'NONE', 'NONE',  #1 ) ;
#154 = PERSON_AND_ORGANIZATION ( #50, #93 ) ;
#155 = AXIS2_PLACEMENT_3D ( 'NONE', #94, #51, #168 ) ;
#156 = APPROVAL_DATE_TIME ( #23, #56 ) ;
#157 = CALENDAR_DATE ( 2021, 8, 12 ) ;
#158 = CC_DESIGN_PERSON_AND_ORGANIZATION_ASSIGNMENT ( #43, #111, ( #122 ) ) ;
#159 = ORIENTED_EDGE ( 'NONE', *, *, #143, .F. ) ;
#160 = CALENDAR_DATE ( 2021, 8, 12 ) ;
#161 = EDGE_LOOP ( 'NONE', ( #85 ) ) ;
#162 = DATE_TIME_ROLE ( 'classification_date' ) ;
#163 = APPLICATION_CONTEXT ( 'configuration controlled 3d designs of mechanical parts and assemblies' ) ;
#164 = CARTESIAN_POINT ( 'NONE',  ( 1.780655482809997885E-13, -6.245698675651500444E-15, 51.00000000000000000 ) ) ;
#165 = FACE_OUTER_BOUND ( 'NONE', #16, .T. ) ;
#166 = CC_DESIGN_APPROVAL ( #41, ( #173 ) ) ;
#167 = DIRECTION ( 'NONE',  ( -3.491481338843133355E-15, 1.224646799147353207E-16, -1.000000000000000000 ) ) ;
#168 = DIRECTION ( 'NONE',  ( 4.275831445896959482E-31, 1.000000000000000000, 1.224646799147353207E-16 ) ) ;
#169 = DIRECTION ( 'NONE',  ( -4.275831445896958607E-31, -1.000000000000000000, -1.224646799147353207E-16 ) ) ;
#170 = VERTEX_POINT ( 'NONE', #147 ) ;
#171 = ADVANCED_FACE ( 'NONE', ( #15, #33 ), #36, .T. ) ;
#172 = CIRCLE ( 'NONE', #149, 5.999999999999996447 ) ;
#173 = SECURITY_CLASSIFICATION ( '', '', #115 ) ;
#174 = AXIS2_PLACEMENT_3D ( 'NONE', #108, #167, #31 ) ;
#175 = CC_DESIGN_PERSON_AND_ORGANIZATION_ASSIGNMENT ( #86, #65, ( #1 ) ) ;
#176 = PERSON_AND_ORGANIZATION ( #50, #93 ) ;
#177 = APPROVAL_DATE_TIME ( #126, #35 ) ;
#178 = AXIS2_PLACEMENT_3D ( 'NONE', #100, #55, #68 ) ;
#179 = PERSON_AND_ORGANIZATION ( #50, #93 ) ;
#180 = EDGE_CURVE ( 'NONE', #189, #189, #64, .T. ) ;
#181 = APPROVAL_STATUS ( 'not_yet_approved' ) ;
#182 = PERSON_AND_ORGANIZATION ( #50, #93 ) ;
#183 = AXIS2_PLACEMENT_3D ( 'NONE', #198, #136, #201 ) ;
#184 = FACE_OUTER_BOUND ( 'NONE', #95, .T. ) ;
#185 = CARTESIAN_POINT ( 'NONE',  ( 1.780655482809997885E-13, -6.245698675651500444E-15, 51.00000000000000000 ) ) ;
#186 = EDGE_LOOP ( 'NONE', ( #196 ) ) ;
#187 = CARTESIAN_POINT ( 'NONE',  ( 3.449583562777016007E-13, 5.999999999999990230, 98.79999999999999716 ) ) ;
#188 = DIRECTION ( 'NONE',  ( 0.0000000000000000000, 1.000000000000000000, 0.0000000000000000000 ) ) ;
#189 = VERTEX_POINT ( 'NONE', #80 ) ;
#190 = CLOSED_SHELL ( 'NONE', ( #191, #192, #171, #83 ) ) ;
#191 = ADVANCED_FACE ( 'NONE', ( #34 ), #91, .F. ) ;
#192 = ADVANCED_FACE ( 'NONE', ( #165, #76 ), #62, .T. ) ;
#193 = COORDINATED_UNIVERSAL_TIME_OFFSET ( 1, 0, .AHEAD. ) ;
#194 = ORIENTED_EDGE ( 'NONE', *, *, #180, .F. ) ;
#195 = CALENDAR_DATE ( 2021, 8, 12 ) ;
#196 = ORIENTED_EDGE ( 'NONE', *, *, #143, .T. ) ;
#197 = APPLICATION_CONTEXT ( 'configuration controlled 3d designs of mechanical parts and assemblies' ) ;
#198 = CARTESIAN_POINT ( 'NONE',  ( 1.780655482809997885E-13, 4.499279347985561328E-32, 51.00000000000000000 ) ) ;
#199 = FACE_OUTER_BOUND ( 'NONE', #77, .T. ) ;
#200 = FACE_OUTER_BOUND ( 'NONE', #114, .T. ) ;
#201 = DIRECTION ( 'NONE',  ( -4.275831445896958607E-31, -1.000000000000000000, -1.224646799147353207E-16 ) ) ;
#202 = AXIS2_PLACEMENT_3D ( 'NONE', #96, #17, #139 ) ;
#203 = CARTESIAN_POINT ( 'NONE',  ( 3.491481338843133355E-13, -1.224646799147353217E-14, 100.0000000000000000 ) ) ;
ENDSEC;
END-ISO-10303-21;
