ISO-10303-21;
HEADER;
FILE_DESCRIPTION (( 'STEP AP203' ),
    '1' );
FILE_NAME ('379731.step',
    '2021-12-08T09:33:54',
    ( '' ),
    ( '' ),
    'SwSTEP 2.0',
    'SolidWorks 2019',
    '' );
FILE_SCHEMA (( 'CONFIG_CONTROL_DESIGN' ));
ENDSEC;

DATA;
#1 = DIRECTION ( 'NONE',  ( 3.491481338843133355E-15, -1.224646799147353207E-16, 1.000000000000000000 ) ) ;
#2 = CC_DESIGN_DATE_AND_TIME_ASSIGNMENT ( #164, #6, ( #117 ) ) ;
#3 =( NAMED_UNIT ( * ) SI_UNIT ( $, .STERADIAN. ) SOLID_ANGLE_UNIT ( ) );
#4 = CYLINDRICAL_SURFACE ( 'NONE', #169, 4.000000000000000000 ) ;
#5 = PRODUCT_DEFINITION_FORMATION_WITH_SPECIFIED_SOURCE ( 'ANY', '', #32, .NOT_KNOWN. ) ;
#6 = DATE_TIME_ROLE ( 'classification_date' ) ;
#7 = APPROVAL_DATE_TIME ( #132, #60 ) ;
#8 = APPROVAL_DATE_TIME ( #150, #136 ) ;
#9 = COORDINATED_UNIVERSAL_TIME_OFFSET ( 1, 0, .AHEAD. ) ;
#10 = CARTESIAN_POINT ( 'NONE',  ( 1.117274028429802674E-13, 2.999519565323707005E-32, 32.00000000000000000 ) ) ;
#11 = FACE_OUTER_BOUND ( 'NONE', #76, .T. ) ;
#12 = DIRECTION ( 'NONE',  ( -3.491481338843133355E-15, 1.224646799147353207E-16, -1.000000000000000000 ) ) ;
#13 = ORIENTED_EDGE ( 'NONE', *, *, #38, .F. ) ;
#14 = DIRECTION ( 'NONE',  ( 0.0000000000000000000, 1.000000000000000000, 0.0000000000000000000 ) ) ;
#15 = CARTESIAN_POINT ( 'NONE',  ( -1.282757270704401027E-30, 4.499306836254348060E-32, -3.673962843316898528E-16 ) ) ;
#16 = CONICAL_SURFACE ( 'NONE', #129, 3.200000000000002842, 0.7853981633974599363 ) ;
#17 =( LENGTH_UNIT ( ) NAMED_UNIT ( * ) SI_UNIT ( .MILLI., .METRE. ) );
#18 = FACE_OUTER_BOUND ( 'NONE', #44, .T. ) ;
#19 = CARTESIAN_POINT ( 'NONE',  ( 2.793185071074506684E-13, -9.797174393178826052E-15, 80.00000000000000000 ) ) ;
#20 = MANIFOLD_SOLID_BREP ( 'Corps-Déplacer/Copier1[1]', #87 ) ;
#21 = CIRCLE ( 'NONE', #201, 3.999999999999997335 ) ;
#22 = PERSON_AND_ORGANIZATION ( #115, #172 ) ;
#23 = DATE_AND_TIME ( #24, #69 ) ;
#24 = CALENDAR_DATE ( 2021, 8, 12 ) ;
#25 = APPROVAL_DATE_TIME ( #23, #137 ) ;
#26 = EDGE_LOOP ( 'NONE', ( #13 ) ) ;
#27 = EDGE_LOOP ( 'NONE', ( #139 ) ) ;
#28 = AXIS2_PLACEMENT_3D ( 'NONE', #10, #199, #90 ) ;
#29 = AXIS2_PLACEMENT_3D ( 'NONE', #187, #95, #67 ) ;
#30 = ORIENTED_EDGE ( 'NONE', *, *, #38, .T. ) ;
#31 = DIRECTION ( 'NONE',  ( 0.0000000000000000000, 1.000000000000000000, 0.0000000000000000000 ) ) ;
#32 = PRODUCT ( '379731', '379731', '', ( #116 ) ) ;
#33 = CARTESIAN_POINT ( 'NONE',  ( 0.0000000000000000000, 0.0000000000000000000, 0.0000000000000000000 ) ) ;
#34 = CARTESIAN_POINT ( 'NONE',  ( 1.117274028429802674E-13, 2.999519565323707005E-32, 32.00000000000000000 ) ) ;
#35 = VERTEX_POINT ( 'NONE', #39 ) ;
#36 =( GEOMETRIC_REPRESENTATION_CONTEXT ( 3 ) GLOBAL_UNCERTAINTY_ASSIGNED_CONTEXT ( ( #182 ) ) GLOBAL_UNIT_ASSIGNED_CONTEXT ( ( #17, #159, #3 ) ) REPRESENTATION_CONTEXT ( 'NONE', 'WORKASPACE' ) );
#37 = DIRECTION ( 'NONE',  ( -3.491481338843133355E-15, 1.224646799147353207E-16, -1.000000000000000000 ) ) ;
#38 = EDGE_CURVE ( 'NONE', #109, #109, #89, .T. ) ;
#39 = CARTESIAN_POINT ( 'NONE',  ( 1.117274028429802674E-13, 3.999999999999993339, 32.00000000000000000 ) ) ;
#40 = DIRECTION ( 'NONE',  ( 0.0000000000000000000, 0.0000000000000000000, 1.000000000000000000 ) ) ;
#41 = PERSON_AND_ORGANIZATION_ROLE ( 'design_supplier' ) ;
#42 = APPROVAL_ROLE ( '' ) ;
#43 = EDGE_CURVE ( 'NONE', #192, #192, #21, .T. ) ;
#44 = EDGE_LOOP ( 'NONE', ( #184 ) ) ;
#45 = EDGE_LOOP ( 'NONE', ( #30 ) ) ;
#46 = APPROVAL_PERSON_ORGANIZATION ( #194, #137, #147 ) ;
#47 = LOCAL_TIME ( 10, 33, 54.00000000000000000, #86 ) ;
#48 = CARTESIAN_POINT ( 'NONE',  ( 1.117274028429802674E-13, -3.918869757271530263E-15, 32.00000000000000000 ) ) ;
#49 = CARTESIAN_POINT ( 'NONE',  ( 0.0000000000000000000, 0.0000000000000000000, 0.0000000000000000000 ) ) ;
#50 = ADVANCED_BREP_SHAPE_REPRESENTATION ( '379731', ( #20, #155, #63 ), #36 ) ;
#51 = CARTESIAN_POINT ( 'NONE',  ( 1.117274028429802674E-13, 3.999999999999993339, 32.00000000000000000 ) ) ;
#52 = VERTEX_POINT ( 'NONE', #143 ) ;
#53 = PLANE ( 'NONE',  #134 ) ;
#54 = ADVANCED_FACE ( 'NONE', ( #77 ), #103, .F. ) ;
#55 = DIRECTION ( 'NONE',  ( -3.491481338843133355E-15, 1.224646799147353207E-16, -1.000000000000000000 ) ) ;
#56 = CALENDAR_DATE ( 2021, 8, 12 ) ;
#57 = APPLICATION_PROTOCOL_DEFINITION ( 'international standard', 'config_control_design', 1994, #102 ) ;
#58 = APPROVAL_PERSON_ORGANIZATION ( #118, #136, #42 ) ;
#59 = CC_DESIGN_PERSON_AND_ORGANIZATION_ASSIGNMENT ( #165, #120, ( #5 ) ) ;
#60 = APPROVAL ( #149, 'UNSPECIFIED' ) ;
#61 = AXIS2_PLACEMENT_3D ( 'NONE', #34, #114, #83 ) ;
#62 = ORIENTED_EDGE ( 'NONE', *, *, #43, .T. ) ;
#63 = AXIS2_PLACEMENT_3D ( 'NONE', #100, #40, #88 ) ;
#64 = DIRECTION ( 'NONE',  ( 0.0000000000000000000, 1.000000000000000000, 0.0000000000000000000 ) ) ;
#65 = CYLINDRICAL_SURFACE ( 'NONE', #198, 3.999999999999994671 ) ;
#66 = FACE_OUTER_BOUND ( 'NONE', #183, .T. ) ;
#67 = DIRECTION ( 'NONE',  ( 4.275831445896958607E-31, 1.000000000000000000, 1.224646799147353207E-16 ) ) ;
#68 = FACE_OUTER_BOUND ( 'NONE', #26, .T. ) ;
#69 = LOCAL_TIME ( 10, 33, 54.00000000000000000, #168 ) ;
#70 = PERSON_AND_ORGANIZATION_ROLE ( 'design_owner' ) ;
#71 = COORDINATED_UNIVERSAL_TIME_OFFSET ( 1, 0, .AHEAD. ) ;
#72 = SHAPE_DEFINITION_REPRESENTATION ( #105, #50 ) ;
#73 = SECURITY_CLASSIFICATION_LEVEL ( 'unclassified' ) ;
#74 = ADVANCED_FACE ( 'NONE', ( #153, #11 ), #65, .T. ) ;
#75 = CC_DESIGN_PERSON_AND_ORGANIZATION_ASSIGNMENT ( #22, #98, ( #117 ) ) ;
#76 = EDGE_LOOP ( 'NONE', ( #62 ) ) ;
#77 = FACE_OUTER_BOUND ( 'NONE', #200, .T. ) ;
#78 = CC_DESIGN_DATE_AND_TIME_ASSIGNMENT ( #195, #181, ( #130 ) ) ;
#79 = FACE_OUTER_BOUND ( 'NONE', #154, .T. ) ;
#80 = DIRECTION ( 'NONE',  ( -4.275831445896958607E-31, -1.000000000000000000, -1.224646799147353207E-16 ) ) ;
#81 = LOCAL_TIME ( 10, 33, 54.00000000000000000, #9 ) ;
#82 = DIRECTION ( 'NONE',  ( 4.275831445896958607E-31, 1.000000000000000000, 1.224646799147353207E-16 ) ) ;
#83 = DIRECTION ( 'NONE',  ( -4.275831445896958607E-31, -1.000000000000000000, -1.224646799147353207E-16 ) ) ;
#84 = CLOSED_SHELL ( 'NONE', ( #160, #74, #203 ) ) ;
#85 = COORDINATED_UNIVERSAL_TIME_OFFSET ( 1, 0, .AHEAD. ) ;
#86 = COORDINATED_UNIVERSAL_TIME_OFFSET ( 1, 0, .AHEAD. ) ;
#87 = CLOSED_SHELL ( 'NONE', ( #54, #144, #123, #107 ) ) ;
#88 = DIRECTION ( 'NONE',  ( 1.000000000000000000, 0.0000000000000000000, 0.0000000000000000000 ) ) ;
#89 = CIRCLE ( 'NONE', #138, 3.200000000000002842 ) ;
#90 = DIRECTION ( 'NONE',  ( -4.275831445896958607E-31, -1.000000000000000000, -1.224646799147353207E-16 ) ) ;
#91 = EDGE_CURVE ( 'NONE', #190, #190, #104, .T. ) ;
#92 = ORIENTED_EDGE ( 'NONE', *, *, #43, .F. ) ;
#93 = AXIS2_PLACEMENT_3D ( 'NONE', #161, #145, #174 ) ;
#94 = FACE_BOUND ( 'NONE', #45, .T. ) ;
#95 = DIRECTION ( 'NONE',  ( -3.491481338843133355E-15, 1.224646799147353207E-16, -1.000000000000000000 ) ) ;
#96 = CC_DESIGN_APPROVAL ( #60, ( #130 ) ) ;
#97 = DIRECTION ( 'NONE',  ( -3.491481338843133355E-15, 1.224646799147353207E-16, -1.000000000000000000 ) ) ;
#98 = PERSON_AND_ORGANIZATION_ROLE ( 'classification_officer' ) ;
#99 = PERSON_AND_ORGANIZATION ( #115, #172 ) ;
#100 = CARTESIAN_POINT ( 'NONE',  ( 0.0000000000000000000, 0.0000000000000000000, 0.0000000000000000000 ) ) ;
#101 = PERSON_AND_ORGANIZATION ( #115, #172 ) ;
#102 = APPLICATION_CONTEXT ( 'configuration controlled 3d designs of mechanical parts and assemblies' ) ;
#103 = PLANE ( 'NONE',  #28 ) ;
#104 = CIRCLE ( 'NONE', #93, 4.000000000000002665 ) ;
#105 = PRODUCT_DEFINITION_SHAPE ( 'NONE', 'NONE',  #130 ) ;
#106 = EDGE_LOOP ( 'NONE', ( #108 ) ) ;
#107 = ADVANCED_FACE ( 'NONE', ( #68 ), #188, .F. ) ;
#108 = ORIENTED_EDGE ( 'NONE', *, *, #126, .F. ) ;
#109 = VERTEX_POINT ( 'NONE', #157 ) ;
#110 = LOCAL_TIME ( 10, 33, 54.00000000000000000, #71 ) ;
#111 = DIRECTION ( 'NONE',  ( -3.491481338843133355E-15, 1.224646799147353207E-16, -1.000000000000000000 ) ) ;
#112 = DIRECTION ( 'NONE',  ( 4.275831445896959482E-31, 1.000000000000000000, 1.224646799147353454E-16 ) ) ;
#113 = APPLICATION_PROTOCOL_DEFINITION ( 'international standard', 'config_control_design', 1994, #146 ) ;
#114 = DIRECTION ( 'NONE',  ( 3.491481338843133355E-15, -1.224646799147353207E-16, 1.000000000000000000 ) ) ;
#115 = PERSON ( 'UNSPECIFIED', 'UNSPECIFIED', 'UNSPECIFIED', ('UNSPECIFIED'), ('UNSPECIFIED'), ('UNSPECIFIED') ) ;
#116 = MECHANICAL_CONTEXT ( 'NONE', #146, 'mechanical' ) ;
#117 = SECURITY_CLASSIFICATION ( '', '', #73 ) ;
#118 = PERSON_AND_ORGANIZATION ( #115, #172 ) ;
#119 = APPROVAL_STATUS ( 'not_yet_approved' ) ;
#120 = PERSON_AND_ORGANIZATION_ROLE ( 'creator' ) ;
#121 = CC_DESIGN_SECURITY_CLASSIFICATION ( #117, ( #5 ) ) ;
#122 = ORIENTED_EDGE ( 'NONE', *, *, #126, .T. ) ;
#123 = ADVANCED_FACE ( 'NONE', ( #18, #94 ), #16, .T. ) ;
#124 = ORIENTED_EDGE ( 'NONE', *, *, #189, .F. ) ;
#125 = FACE_OUTER_BOUND ( 'NONE', #27, .T. ) ;
#126 = EDGE_CURVE ( 'NONE', #35, #35, #140, .T. ) ;
#127 = PLANE ( 'NONE',  #61 ) ;
#128 = CARTESIAN_POINT ( 'NONE',  ( 1.117274028429802674E-13, -3.918869757271530263E-15, 32.00000000000000000 ) ) ;
#129 = AXIS2_PLACEMENT_3D ( 'NONE', #19, #111, #156 ) ;
#130 = PRODUCT_DEFINITION ( 'UNKNOWN', '', #5, #167 ) ;
#131 = CALENDAR_DATE ( 2021, 8, 12 ) ;
#132 = DATE_AND_TIME ( #180, #110 ) ;
#133 = PERSON_AND_ORGANIZATION_ROLE ( 'creator' ) ;
#134 = AXIS2_PLACEMENT_3D ( 'NONE', #173, #1, #80 ) ;
#135 = CC_DESIGN_APPROVAL ( #137, ( #5 ) ) ;
#136 = APPROVAL ( #119, 'UNSPECIFIED' ) ;
#137 = APPROVAL ( #163, 'UNSPECIFIED' ) ;
#138 = AXIS2_PLACEMENT_3D ( 'NONE', #141, #12, #64 ) ;
#139 = ORIENTED_EDGE ( 'NONE', *, *, #91, .T. ) ;
#140 = CIRCLE ( 'NONE', #175, 3.999999999999997335 ) ;
#141 = CARTESIAN_POINT ( 'NONE',  ( 2.793185071074506684E-13, -9.797174393178826052E-15, 80.00000000000000000 ) ) ;
#142 = DIRECTION ( 'NONE',  ( -3.491481338843133355E-15, 1.224646799147353207E-16, -1.000000000000000000 ) ) ;
#143 = CARTESIAN_POINT ( 'NONE',  ( 4.275753076543795256E-31, 3.999999999999993339, 1.224624353272506412E-16 ) ) ;
#144 = ADVANCED_FACE ( 'NONE', ( #176, #125 ), #4, .T. ) ;
#145 = DIRECTION ( 'NONE',  ( -3.491481338843133355E-15, 1.224646799147353207E-16, -1.000000000000000000 ) ) ;
#146 = APPLICATION_CONTEXT ( 'configuration controlled 3d designs of mechanical parts and assemblies' ) ;
#147 = APPROVAL_ROLE ( '' ) ;
#148 = PRODUCT_RELATED_PRODUCT_CATEGORY ( 'detail', '', ( #32 ) ) ;
#149 = APPROVAL_STATUS ( 'not_yet_approved' ) ;
#150 = DATE_AND_TIME ( #56, #47 ) ;
#151 = PERSON_AND_ORGANIZATION ( #115, #172 ) ;
#152 = CC_DESIGN_PERSON_AND_ORGANIZATION_ASSIGNMENT ( #101, #133, ( #130 ) ) ;
#153 = FACE_OUTER_BOUND ( 'NONE', #186, .T. ) ;
#154 = EDGE_LOOP ( 'NONE', ( #170 ) ) ;
#155 = MANIFOLD_SOLID_BREP ( 'Corps-Déplacer/Copier1[2]', #84 ) ;
#156 = DIRECTION ( 'NONE',  ( 0.0000000000000000000, 1.000000000000000000, 0.0000000000000000000 ) ) ;
#157 = CARTESIAN_POINT ( 'NONE',  ( 2.793185071074506684E-13, 3.199999999999992628, 80.00000000000000000 ) ) ;
#158 = APPROVAL_PERSON_ORGANIZATION ( #99, #60, #197 ) ;
#159 =( NAMED_UNIT ( * ) PLANE_ANGLE_UNIT ( ) SI_UNIT ( $, .RADIAN. ) );
#160 = ADVANCED_FACE ( 'NONE', ( #79 ), #53, .F. ) ;
#161 = CARTESIAN_POINT ( 'NONE',  ( 2.765253220363762122E-13, -9.699202649247039195E-15, 79.20000000000001705 ) ) ;
#162 = DIRECTION ( 'NONE',  ( 4.275831445896958607E-31, 1.000000000000000000, 1.224646799147353207E-16 ) ) ;
#163 = APPROVAL_STATUS ( 'not_yet_approved' ) ;
#164 = DATE_AND_TIME ( #193, #202 ) ;
#165 = PERSON_AND_ORGANIZATION ( #115, #172 ) ;
#166 = CC_DESIGN_PERSON_AND_ORGANIZATION_ASSIGNMENT ( #151, #70, ( #32 ) ) ;
#167 = DESIGN_CONTEXT ( 'detailed design', #102, 'design' ) ;
#168 = COORDINATED_UNIVERSAL_TIME_OFFSET ( 1, 0, .AHEAD. ) ;
#169 = AXIS2_PLACEMENT_3D ( 'NONE', #49, #37, #82 ) ;
#170 = ORIENTED_EDGE ( 'NONE', *, *, #189, .T. ) ;
#171 = DIRECTION ( 'NONE',  ( -3.491481338843133355E-15, 1.224646799147353207E-16, -1.000000000000000000 ) ) ;
#172 = ORGANIZATION ( 'UNSPECIFIED', 'UNSPECIFIED', '' ) ;
#173 = CARTESIAN_POINT ( 'NONE',  ( -6.413786353522005134E-31, 2.249653418127174030E-32, -1.836981421658449264E-16 ) ) ;
#174 = DIRECTION ( 'NONE',  ( 0.0000000000000000000, 1.000000000000000000, 0.0000000000000000000 ) ) ;
#175 = AXIS2_PLACEMENT_3D ( 'NONE', #128, #55, #14 ) ;
#176 = FACE_OUTER_BOUND ( 'NONE', #106, .T. ) ;
#177 = CC_DESIGN_PERSON_AND_ORGANIZATION_ASSIGNMENT ( #179, #41, ( #5 ) ) ;
#178 = CARTESIAN_POINT ( 'NONE',  ( 2.765253220363762122E-13, 3.999999999999993339, 79.20000000000001705 ) ) ;
#179 = PERSON_AND_ORGANIZATION ( #115, #172 ) ;
#180 = CALENDAR_DATE ( 2021, 8, 12 ) ;
#181 = DATE_TIME_ROLE ( 'creation_date' ) ;
#182 = UNCERTAINTY_MEASURE_WITH_UNIT (LENGTH_MEASURE( 1.000000000000000082E-05 ), #17, 'distance_accuracy_value', 'NONE');
#183 = EDGE_LOOP ( 'NONE', ( #92 ) ) ;
#184 = ORIENTED_EDGE ( 'NONE', *, *, #91, .F. ) ;
#185 = CC_DESIGN_APPROVAL ( #136, ( #117 ) ) ;
#186 = EDGE_LOOP ( 'NONE', ( #124 ) ) ;
#187 = CARTESIAN_POINT ( 'NONE',  ( 2.793185071074506684E-13, 2.399615652258959309E-32, 80.00000000000000000 ) ) ;
#188 = PLANE ( 'NONE',  #29 ) ;
#189 = EDGE_CURVE ( 'NONE', #52, #52, #196, .T. ) ;
#190 = VERTEX_POINT ( 'NONE', #178 ) ;
#191 = AXIS2_PLACEMENT_3D ( 'NONE', #15, #97, #162 ) ;
#192 = VERTEX_POINT ( 'NONE', #51 ) ;
#193 = CALENDAR_DATE ( 2021, 8, 12 ) ;
#194 = PERSON_AND_ORGANIZATION ( #115, #172 ) ;
#195 = DATE_AND_TIME ( #131, #81 ) ;
#196 = CIRCLE ( 'NONE', #191, 3.999999999999993339 ) ;
#197 = APPROVAL_ROLE ( '' ) ;
#198 = AXIS2_PLACEMENT_3D ( 'NONE', #33, #142, #112 ) ;
#199 = DIRECTION ( 'NONE',  ( 3.491481338843133355E-15, -1.224646799147353207E-16, 1.000000000000000000 ) ) ;
#200 = EDGE_LOOP ( 'NONE', ( #122 ) ) ;
#201 = AXIS2_PLACEMENT_3D ( 'NONE', #48, #171, #31 ) ;
#202 = LOCAL_TIME ( 10, 33, 54.00000000000000000, #85 ) ;
#203 = ADVANCED_FACE ( 'NONE', ( #66 ), #127, .T. ) ;
ENDSEC;
END-ISO-10303-21;
