ISO-10303-21;
HEADER;
FILE_DESCRIPTION (( 'STEP AP203' ),
    '1' );
FILE_NAME ('379730.step',
    '2021-12-08T09:33:53',
    ( '' ),
    ( '' ),
    'SwSTEP 2.0',
    'SolidWorks 2019',
    '' );
FILE_SCHEMA (( 'CONFIG_CONTROL_DESIGN' ));
ENDSEC;

DATA;
#1 = CALENDAR_DATE ( 2021, 8, 12 ) ;
#2 = CC_DESIGN_APPROVAL ( #145, ( #214 ) ) ;
#3 = PRODUCT_RELATED_PRODUCT_CATEGORY ( 'detail', '', ( #59 ) ) ;
#4 = PERSON_AND_ORGANIZATION_ROLE ( 'design_supplier' ) ;
#5 = CC_DESIGN_DATE_AND_TIME_ASSIGNMENT ( #86, #193, ( #163 ) ) ;
#6 = DIRECTION ( 'NONE',  ( 1.000000000000000000, 0.0000000000000000000, 0.0000000000000000000 ) ) ;
#7 = AXIS2_PLACEMENT_3D ( 'NONE', #78, #183, #102 ) ;
#8 = ORIENTED_EDGE ( 'NONE', *, *, #132, .T. ) ;
#9 = APPLICATION_CONTEXT ( 'configuration controlled 3d designs of mechanical parts and assemblies' ) ;
#10 = EDGE_LOOP ( 'NONE', ( #58 ) ) ;
#11 = CLOSED_SHELL ( 'NONE', ( #40, #222, #100 ) ) ;
#12 = DIRECTION ( 'NONE',  ( -3.491481338843133355E-15, 1.224646799147353207E-16, -1.000000000000000000 ) ) ;
#13 = EDGE_LOOP ( 'NONE', ( #56 ) ) ;
#14 =( NAMED_UNIT ( * ) SI_UNIT ( $, .STERADIAN. ) SOLID_ANGLE_UNIT ( ) );
#15 = CARTESIAN_POINT ( 'NONE',  ( 2.765253220363762122E-13, -9.699202649247039195E-15, 79.20000000000001705 ) ) ;
#16 = AXIS2_PLACEMENT_3D ( 'NONE', #177, #27, #215 ) ;
#17 = CARTESIAN_POINT ( 'NONE',  ( 1.457066766262802419E-13, -5.326959868389282613E-15, 41.73205080756888208 ) ) ;
#18 = DIRECTION ( 'NONE',  ( 0.0000000000000000000, -1.000000000000000000, 0.0000000000000000000 ) ) ;
#19 = DIRECTION ( 'NONE',  ( 3.491481338843133355E-15, -1.276467311168695266E-16, 1.000000000000000000 ) ) ;
#20 = VERTEX_POINT ( 'NONE', #117 ) ;
#21 = CALENDAR_DATE ( 2021, 8, 12 ) ;
#22 = APPROVAL_DATE_TIME ( #190, #84 ) ;
#23 = CARTESIAN_POINT ( 'NONE',  ( 0.0000000000000000000, 0.0000000000000000000, 0.0000000000000000000 ) ) ;
#24 = MANIFOLD_SOLID_BREP ( 'Corps-Déplacer/Copier1[2]', #11 ) ;
#25 = AXIS2_PLACEMENT_3D ( 'NONE', #23, #171, #6 ) ;
#26 = DIRECTION ( 'NONE',  ( -3.491481338843133355E-15, 1.224646799147353207E-16, -1.000000000000000000 ) ) ;
#27 = DIRECTION ( 'NONE',  ( 3.491481338843133355E-15, -1.276467311168695266E-16, 1.000000000000000000 ) ) ;
#28 = CARTESIAN_POINT ( 'NONE',  ( 2.765253220363762122E-13, 3.999999999999993339, 79.20000000000001705 ) ) ;
#29 = ORIENTED_EDGE ( 'NONE', *, *, #179, .F. ) ;
#30 = MANIFOLD_SOLID_BREP ( 'Corps-Déplacer/Copier1[1]', #108 ) ;
#31 = CIRCLE ( 'NONE', #176, 4.000000000000002665 ) ;
#32 = CARTESIAN_POINT ( 'NONE',  ( -6.413839710158237013E-31, 0.0000000000000000000, -1.836996703606440502E-16 ) ) ;
#33 = DIRECTION ( 'NONE',  ( 0.0000000000000000000, 1.000000000000000000, 0.0000000000000000000 ) ) ;
#34 = PERSON_AND_ORGANIZATION ( #191, #63 ) ;
#35 = CIRCLE ( 'NONE', #194, 3.200000000000002842 ) ;
#36 = DATE_TIME_ROLE ( 'classification_date' ) ;
#37 = PERSON_AND_ORGANIZATION_ROLE ( 'creator' ) ;
#38 = AXIS2_PLACEMENT_3D ( 'NONE', #169, #218, #99 ) ;
#39 = DESIGN_CONTEXT ( 'detailed design', #9, 'design' ) ;
#40 = ADVANCED_FACE ( 'NONE', ( #111 ), #95, .T. ) ;
#41 = ORIENTED_EDGE ( 'NONE', *, *, #75, .F. ) ;
#42 = ORIENTED_EDGE ( 'NONE', *, *, #118, .T. ) ;
#43 = CARTESIAN_POINT ( 'NONE',  ( 2.793185071074506684E-13, 2.399615652258959309E-32, 80.00000000000000000 ) ) ;
#44 = CC_DESIGN_PERSON_AND_ORGANIZATION_ASSIGNMENT ( #207, #208, ( #163 ) ) ;
#45 = DIRECTION ( 'NONE',  ( -3.491481338843133355E-15, 1.224646799147353207E-16, -1.000000000000000000 ) ) ;
#46 = CARTESIAN_POINT ( 'NONE',  ( 1.326762908760390423E-13, -4.850575782441041713E-15, 38.00000000000000000 ) ) ;
#47 = DIRECTION ( 'NONE',  ( -3.491481338843133355E-15, 1.276467311168695266E-16, -1.000000000000000000 ) ) ;
#48 = APPROVAL_PERSON_ORGANIZATION ( #121, #84, #154 ) ;
#49 = CARTESIAN_POINT ( 'NONE',  ( 2.793185071074506684E-13, 3.199999999999992628, 80.00000000000000000 ) ) ;
#50 = CARTESIAN_POINT ( 'NONE',  ( 2.793185071074506684E-13, -9.797174393178826052E-15, 80.00000000000000000 ) ) ;
#51 = COORDINATED_UNIVERSAL_TIME_OFFSET ( 1, 0, .AHEAD. ) ;
#52 = PERSON_AND_ORGANIZATION ( #191, #63 ) ;
#53 = PERSON_AND_ORGANIZATION ( #191, #63 ) ;
#54 = CALENDAR_DATE ( 2021, 8, 12 ) ;
#55 = ADVANCED_FACE ( 'NONE', ( #147 ), #130, .F. ) ;
#56 = ORIENTED_EDGE ( 'NONE', *, *, #174, .T. ) ;
#57 = CC_DESIGN_PERSON_AND_ORGANIZATION_ASSIGNMENT ( #34, #71, ( #189 ) ) ;
#58 = ORIENTED_EDGE ( 'NONE', *, *, #75, .T. ) ;
#59 = PRODUCT ( '379730', '379730', '', ( #69 ) ) ;
#60 = EDGE_LOOP ( 'NONE', ( #42 ) ) ;
#61 = FACE_OUTER_BOUND ( 'NONE', #126, .T. ) ;
#62 = ADVANCED_FACE ( 'NONE', ( #76, #180 ), #110, .T. ) ;
#63 = ORGANIZATION ( 'UNSPECIFIED', 'UNSPECIFIED', '' ) ;
#64 = DIRECTION ( 'NONE',  ( -4.275831445896958607E-31, -1.000000000000000000, -1.224646799147353207E-16 ) ) ;
#65 = CARTESIAN_POINT ( 'NONE',  ( 1.326762908760390423E-13, -3.000000000000000888, 38.00000000000000000 ) ) ;
#66 = FACE_BOUND ( 'NONE', #142, .T. ) ;
#67 = DIRECTION ( 'NONE',  ( -4.456761796588770537E-31, -1.000000000000000000, -1.276467311168695512E-16 ) ) ;
#68 = FACE_OUTER_BOUND ( 'NONE', #60, .T. ) ;
#69 = MECHANICAL_CONTEXT ( 'NONE', #72, 'mechanical' ) ;
#70 = SECURITY_CLASSIFICATION_LEVEL ( 'unclassified' ) ;
#71 = PERSON_AND_ORGANIZATION_ROLE ( 'classification_officer' ) ;
#72 = APPLICATION_CONTEXT ( 'configuration controlled 3d designs of mechanical parts and assemblies' ) ;
#73 = PERSON_AND_ORGANIZATION ( #191, #63 ) ;
#74 = ORIENTED_EDGE ( 'NONE', *, *, #157, .T. ) ;
#75 = EDGE_CURVE ( 'NONE', #83, #83, #103, .T. ) ;
#76 = FACE_BOUND ( 'NONE', #13, .T. ) ;
#77 = CARTESIAN_POINT ( 'NONE',  ( 1.326762908760390423E-13, 2.999519565323707005E-32, 38.00000000000000000 ) ) ;
#78 = CARTESIAN_POINT ( 'NONE',  ( 1.228470328561541638E-30, -6.836089494465371466E-32, 3.518478861378026544E-16 ) ) ;
#79 = CC_DESIGN_PERSON_AND_ORGANIZATION_ASSIGNMENT ( #73, #37, ( #214 ) ) ;
#80 = LOCAL_TIME ( 10, 33, 53.00000000000000000, #136 ) ;
#81 = DIRECTION ( 'NONE',  ( -4.275831445896958607E-31, -1.000000000000000000, -1.224646799147353207E-16 ) ) ;
#82 = DIRECTION ( 'NONE',  ( 4.275831445896958607E-31, 1.000000000000000000, 1.224646799147353207E-16 ) ) ;
#83 = VERTEX_POINT ( 'NONE', #65 ) ;
#84 = APPROVAL ( #138, 'UNSPECIFIED' ) ;
#85 = PERSON_AND_ORGANIZATION_ROLE ( 'design_owner' ) ;
#86 = DATE_AND_TIME ( #1, #153 ) ;
#87 = CC_DESIGN_APPROVAL ( #84, ( #163 ) ) ;
#88 = APPROVAL_ROLE ( '' ) ;
#89 = UNCERTAINTY_MEASURE_WITH_UNIT (LENGTH_MEASURE( 1.000000000000000082E-05 ), #168, 'distance_accuracy_value', 'NONE');
#90 = EDGE_LOOP ( 'NONE', ( #143 ) ) ;
#91 = CC_DESIGN_APPROVAL ( #199, ( #189 ) ) ;
#92 = EDGE_LOOP ( 'NONE', ( #41 ) ) ;
#93 = AXIS2_PLACEMENT_3D ( 'NONE', #128, #114, #82 ) ;
#94 = DIRECTION ( 'NONE',  ( 0.0000000000000000000, 1.000000000000000000, 0.0000000000000000000 ) ) ;
#95 = PLANE ( 'NONE',  #161 ) ;
#96 = CARTESIAN_POINT ( 'NONE',  ( 1.457066766262802419E-13, -4.000000000000005329, 41.73205080756888208 ) ) ;
#97 = FACE_OUTER_BOUND ( 'NONE', #109, .T. ) ;
#98 = AXIS2_PLACEMENT_3D ( 'NONE', #46, #19, #204 ) ;
#99 = DIRECTION ( 'NONE',  ( -4.275831445896958607E-31, -1.000000000000000000, -1.224646799147353207E-16 ) ) ;
#100 = ADVANCED_FACE ( 'NONE', ( #97 ), #151, .F. ) ;
#101 = VERTEX_POINT ( 'NONE', #96 ) ;
#102 = DIRECTION ( 'NONE',  ( -4.456761796588770537E-31, -1.000000000000000000, -1.276467311168695512E-16 ) ) ;
#103 = CIRCLE ( 'NONE', #178, 2.999999999999996003 ) ;
#104 = DATE_AND_TIME ( #139, #140 ) ;
#105 = CALENDAR_DATE ( 2021, 8, 12 ) ;
#106 = LOCAL_TIME ( 10, 33, 53.00000000000000000, #134 ) ;
#107 = APPROVAL_ROLE ( '' ) ;
#108 = CLOSED_SHELL ( 'NONE', ( #137, #150, #55, #62, #211 ) ) ;
#109 = EDGE_LOOP ( 'NONE', ( #159 ) ) ;
#110 = CONICAL_SURFACE ( 'NONE', #16, 7.999999999999994671, 0.2617993877991501850 ) ;
#111 = FACE_OUTER_BOUND ( 'NONE', #10, .T. ) ;
#112 = PRODUCT_DEFINITION_SHAPE ( 'NONE', 'NONE',  #163 ) ;
#113 = DIRECTION ( 'NONE',  ( 4.275831445896958607E-31, 1.000000000000000000, 1.224646799147353207E-16 ) ) ;
#114 = DIRECTION ( 'NONE',  ( -3.491481338843133355E-15, 1.224646799147353207E-16, -1.000000000000000000 ) ) ;
#115 = FACE_OUTER_BOUND ( 'NONE', #92, .T. ) ;
#116 = CIRCLE ( 'NONE', #98, 2.999999999999996003 ) ;
#117 = CARTESIAN_POINT ( 'NONE',  ( -1.085582104150881436E-31, -2.999999999999996447, -3.109230721280550001E-17 ) ) ;
#118 = EDGE_CURVE ( 'NONE', #152, #152, #31, .T. ) ;
#119 = APPROVAL_STATUS ( 'not_yet_approved' ) ;
#120 = APPROVAL_DATE_TIME ( #170, #145 ) ;
#121 = PERSON_AND_ORGANIZATION ( #191, #63 ) ;
#122 = LOCAL_TIME ( 10, 33, 53.00000000000000000, #51 ) ;
#123 = EDGE_LOOP ( 'NONE', ( #175 ) ) ;
#124 = AXIS2_PLACEMENT_3D ( 'NONE', #17, #47, #18 ) ;
#125 = ORIENTED_EDGE ( 'NONE', *, *, #179, .T. ) ;
#126 = EDGE_LOOP ( 'NONE', ( #74 ) ) ;
#127 = DIRECTION ( 'NONE',  ( 0.0000000000000000000, -1.000000000000000000, 0.0000000000000000000 ) ) ;
#128 = CARTESIAN_POINT ( 'NONE',  ( 0.0000000000000000000, 0.0000000000000000000, 0.0000000000000000000 ) ) ;
#129 = AXIS2_PLACEMENT_3D ( 'NONE', #165, #217, #81 ) ;
#130 = PLANE ( 'NONE',  #196 ) ;
#131 = FACE_OUTER_BOUND ( 'NONE', #90, .T. ) ;
#132 = EDGE_CURVE ( 'NONE', #205, #205, #35, .T. ) ;
#133 = CYLINDRICAL_SURFACE ( 'NONE', #93, 4.000000000000000000 ) ;
#134 = COORDINATED_UNIVERSAL_TIME_OFFSET ( 1, 0, .AHEAD. ) ;
#135 = CIRCLE ( 'NONE', #124, 4.000000000000000000 ) ;
#136 = COORDINATED_UNIVERSAL_TIME_OFFSET ( 1, 0, .AHEAD. ) ;
#137 = ADVANCED_FACE ( 'NONE', ( #68, #181 ), #133, .T. ) ;
#138 = APPROVAL_STATUS ( 'not_yet_approved' ) ;
#139 = CALENDAR_DATE ( 2021, 8, 12 ) ;
#140 = LOCAL_TIME ( 10, 33, 53.00000000000000000, #156 ) ;
#141 = CC_DESIGN_PERSON_AND_ORGANIZATION_ASSIGNMENT ( #192, #85, ( #59 ) ) ;
#142 = EDGE_LOOP ( 'NONE', ( #8 ) ) ;
#143 = ORIENTED_EDGE ( 'NONE', *, *, #174, .F. ) ;
#144 = APPROVAL_PERSON_ORGANIZATION ( #52, #145, #88 ) ;
#145 = APPROVAL ( #119, 'UNSPECIFIED' ) ;
#146 = EDGE_LOOP ( 'NONE', ( #125 ) ) ;
#147 = FACE_OUTER_BOUND ( 'NONE', #202, .T. ) ;
#148 = CYLINDRICAL_SURFACE ( 'NONE', #158, 2.999999999999996447 ) ;
#149 = DIRECTION ( 'NONE',  ( 3.491481338843133355E-15, -1.276467311168695266E-16, 1.000000000000000000 ) ) ;
#150 = ADVANCED_FACE ( 'NONE', ( #206, #66 ), #221, .T. ) ;
#151 = PLANE ( 'NONE',  #129 ) ;
#152 = VERTEX_POINT ( 'NONE', #28 ) ;
#153 = LOCAL_TIME ( 10, 33, 53.00000000000000000, #173 ) ;
#154 = APPROVAL_ROLE ( '' ) ;
#155 = APPLICATION_PROTOCOL_DEFINITION ( 'international standard', 'config_control_design', 1994, #72 ) ;
#156 = COORDINATED_UNIVERSAL_TIME_OFFSET ( 1, 0, .AHEAD. ) ;
#157 = EDGE_CURVE ( 'NONE', #20, #20, #172, .T. ) ;
#158 = AXIS2_PLACEMENT_3D ( 'NONE', #32, #201, #67 ) ;
#159 = ORIENTED_EDGE ( 'NONE', *, *, #157, .F. ) ;
#160 = APPROVAL_PERSON_ORGANIZATION ( #53, #199, #107 ) ;
#161 = AXIS2_PLACEMENT_3D ( 'NONE', #77, #200, #64 ) ;
#162 = CARTESIAN_POINT ( 'NONE',  ( 2.793185071074506684E-13, -9.797174393178826052E-15, 80.00000000000000000 ) ) ;
#163 = PRODUCT_DEFINITION ( 'UNKNOWN', '', #214, #39 ) ;
#164 = ORIENTED_EDGE ( 'NONE', *, *, #132, .F. ) ;
#165 = CARTESIAN_POINT ( 'NONE',  ( -6.413786353522005134E-31, 2.249653418127174030E-32, -1.836981421658449264E-16 ) ) ;
#166 =( GEOMETRIC_REPRESENTATION_CONTEXT ( 3 ) GLOBAL_UNCERTAINTY_ASSIGNED_CONTEXT ( ( #89 ) ) GLOBAL_UNIT_ASSIGNED_CONTEXT ( ( #168, #220, #14 ) ) REPRESENTATION_CONTEXT ( 'NONE', 'WORKASPACE' ) );
#167 = PLANE ( 'NONE',  #38 ) ;
#168 =( LENGTH_UNIT ( ) NAMED_UNIT ( * ) SI_UNIT ( .MILLI., .METRE. ) );
#169 = CARTESIAN_POINT ( 'NONE',  ( 1.326762908760390423E-13, 2.999519565323707005E-32, 38.00000000000000000 ) ) ;
#170 = DATE_AND_TIME ( #21, #106 ) ;
#171 = DIRECTION ( 'NONE',  ( 0.0000000000000000000, 0.0000000000000000000, 1.000000000000000000 ) ) ;
#172 = CIRCLE ( 'NONE', #7, 2.999999999999996447 ) ;
#173 = COORDINATED_UNIVERSAL_TIME_OFFSET ( 1, 0, .AHEAD. ) ;
#174 = EDGE_CURVE ( 'NONE', #216, #216, #116, .T. ) ;
#175 = ORIENTED_EDGE ( 'NONE', *, *, #118, .F. ) ;
#176 = AXIS2_PLACEMENT_3D ( 'NONE', #15, #26, #94 ) ;
#177 = CARTESIAN_POINT ( 'NONE',  ( 1.978282196272447627E-13, -7.232496212182236744E-15, 56.66025403784432513 ) ) ;
#178 = AXIS2_PLACEMENT_3D ( 'NONE', #182, #149, #127 ) ;
#179 = EDGE_CURVE ( 'NONE', #101, #101, #135, .T. ) ;
#180 = FACE_OUTER_BOUND ( 'NONE', #146, .T. ) ;
#181 = FACE_OUTER_BOUND ( 'NONE', #198, .T. ) ;
#182 = CARTESIAN_POINT ( 'NONE',  ( 1.326762908760390423E-13, -4.850575782441041713E-15, 38.00000000000000000 ) ) ;
#183 = DIRECTION ( 'NONE',  ( 3.491481338843133355E-15, -1.276467311168695266E-16, 1.000000000000000000 ) ) ;
#184 = AXIS2_PLACEMENT_3D ( 'NONE', #50, #219, #33 ) ;
#185 = CARTESIAN_POINT ( 'NONE',  ( 1.326762908760390423E-13, -3.000000000000000888, 38.00000000000000000 ) ) ;
#186 = DIRECTION ( 'NONE',  ( 0.0000000000000000000, 1.000000000000000000, 0.0000000000000000000 ) ) ;
#187 = CC_DESIGN_DATE_AND_TIME_ASSIGNMENT ( #210, #36, ( #189 ) ) ;
#188 = PERSON_AND_ORGANIZATION ( #191, #63 ) ;
#189 = SECURITY_CLASSIFICATION ( '', '', #70 ) ;
#190 = DATE_AND_TIME ( #54, #122 ) ;
#191 = PERSON ( 'UNSPECIFIED', 'UNSPECIFIED', 'UNSPECIFIED', ('UNSPECIFIED'), ('UNSPECIFIED'), ('UNSPECIFIED') ) ;
#192 = PERSON_AND_ORGANIZATION ( #191, #63 ) ;
#193 = DATE_TIME_ROLE ( 'creation_date' ) ;
#194 = AXIS2_PLACEMENT_3D ( 'NONE', #162, #12, #186 ) ;
#195 = APPROVAL_DATE_TIME ( #104, #199 ) ;
#196 = AXIS2_PLACEMENT_3D ( 'NONE', #43, #45, #113 ) ;
#197 = CC_DESIGN_PERSON_AND_ORGANIZATION_ASSIGNMENT ( #188, #4, ( #214 ) ) ;
#198 = EDGE_LOOP ( 'NONE', ( #29 ) ) ;
#199 = APPROVAL ( #212, 'UNSPECIFIED' ) ;
#200 = DIRECTION ( 'NONE',  ( 3.491481338843133355E-15, -1.224646799147353207E-16, 1.000000000000000000 ) ) ;
#201 = DIRECTION ( 'NONE',  ( 3.491481338843133355E-15, -1.276467311168695266E-16, 1.000000000000000000 ) ) ;
#202 = EDGE_LOOP ( 'NONE', ( #164 ) ) ;
#203 = ADVANCED_BREP_SHAPE_REPRESENTATION ( '379730', ( #30, #24, #25 ), #166 ) ;
#204 = DIRECTION ( 'NONE',  ( 0.0000000000000000000, -1.000000000000000000, 0.0000000000000000000 ) ) ;
#205 = VERTEX_POINT ( 'NONE', #49 ) ;
#206 = FACE_OUTER_BOUND ( 'NONE', #123, .T. ) ;
#207 = PERSON_AND_ORGANIZATION ( #191, #63 ) ;
#208 = PERSON_AND_ORGANIZATION_ROLE ( 'creator' ) ;
#209 = CC_DESIGN_SECURITY_CLASSIFICATION ( #189, ( #214 ) ) ;
#210 = DATE_AND_TIME ( #105, #80 ) ;
#211 = ADVANCED_FACE ( 'NONE', ( #131 ), #167, .F. ) ;
#212 = APPROVAL_STATUS ( 'not_yet_approved' ) ;
#213 = SHAPE_DEFINITION_REPRESENTATION ( #112, #203 ) ;
#214 = PRODUCT_DEFINITION_FORMATION_WITH_SPECIFIED_SOURCE ( 'ANY', '', #59, .NOT_KNOWN. ) ;
#215 = DIRECTION ( 'NONE',  ( 0.0000000000000000000, -1.000000000000000000, 0.0000000000000000000 ) ) ;
#216 = VERTEX_POINT ( 'NONE', #185 ) ;
#217 = DIRECTION ( 'NONE',  ( 3.491481338843133355E-15, -1.224646799147353207E-16, 1.000000000000000000 ) ) ;
#218 = DIRECTION ( 'NONE',  ( 3.491481338843133355E-15, -1.224646799147353207E-16, 1.000000000000000000 ) ) ;
#219 = DIRECTION ( 'NONE',  ( -3.491481338843133355E-15, 1.224646799147353207E-16, -1.000000000000000000 ) ) ;
#220 =( NAMED_UNIT ( * ) PLANE_ANGLE_UNIT ( ) SI_UNIT ( $, .RADIAN. ) );
#221 = CONICAL_SURFACE ( 'NONE', #184, 3.200000000000002842, 0.7853981633974599363 ) ;
#222 = ADVANCED_FACE ( 'NONE', ( #61, #115 ), #148, .T. ) ;
#223 = APPLICATION_PROTOCOL_DEFINITION ( 'international standard', 'config_control_design', 1994, #9 ) ;
ENDSEC;
END-ISO-10303-21;
