ISO-10303-21;
HEADER;
FILE_DESCRIPTION (( 'STEP AP203' ),
    '1' );
FILE_NAME ('379729.step',
    '2021-12-08T09:33:53',
    ( '' ),
    ( '' ),
    'SwSTEP 2.0',
    'SolidWorks 2019',
    '' );
FILE_SCHEMA (( 'CONFIG_CONTROL_DESIGN' ));
ENDSEC;

DATA;
#1 = DATE_TIME_ROLE ( 'classification_date' ) ;
#2 = CONICAL_SURFACE ( 'NONE', #121, 3.200000000000002842, 0.7853981633974599363 ) ;
#3 = COORDINATED_UNIVERSAL_TIME_OFFSET ( 1, 0, .AHEAD. ) ;
#4 = APPROVAL ( #126, 'UNSPECIFIED' ) ;
#5 = APPROVAL_STATUS ( 'not_yet_approved' ) ;
#6 = ORIENTED_EDGE ( 'NONE', *, *, #138, .T. ) ;
#7 = ORIENTED_EDGE ( 'NONE', *, *, #102, .T. ) ;
#8 = FACE_OUTER_BOUND ( 'NONE', #58, .T. ) ;
#9 = FACE_OUTER_BOUND ( 'NONE', #115, .T. ) ;
#10 = CARTESIAN_POINT ( 'NONE',  ( 2.793185071074506684E-13, -9.797174393178826052E-15, 80.00000000000000000 ) ) ;
#11 = CARTESIAN_POINT ( 'NONE',  ( 0.0000000000000000000, 0.0000000000000000000, 0.0000000000000000000 ) ) ;
#12 = PRODUCT_DEFINITION_SHAPE ( 'NONE', 'NONE',  #145 ) ;
#13 = FACE_BOUND ( 'NONE', #215, .T. ) ;
#14 = DIRECTION ( 'NONE',  ( 3.491481338843133355E-15, -1.276467311168695266E-16, 1.000000000000000000 ) ) ;
#15 = CARTESIAN_POINT ( 'NONE',  ( 1.247577885932214418E-13, -4.000000000000004441, 35.73205080756887497 ) ) ;
#16 = LOCAL_TIME ( 10, 33, 53.00000000000000000, #3 ) ;
#17 = APPROVAL_DATE_TIME ( #207, #4 ) ;
#18 = PERSON_AND_ORGANIZATION_ROLE ( 'creator' ) ;
#19 = ORGANIZATION ( 'UNSPECIFIED', 'UNSPECIFIED', '' ) ;
#20 = FACE_BOUND ( 'NONE', #163, .T. ) ;
#21 = CC_DESIGN_APPROVAL ( #4, ( #147 ) ) ;
#22 = DIRECTION ( 'NONE',  ( 3.491481338843133355E-15, -1.224646799147353207E-16, 1.000000000000000000 ) ) ;
#23 = MANIFOLD_SOLID_BREP ( 'Corps-Déplacer/Copier1[1]', #109 ) ;
#24 = DIRECTION ( 'NONE',  ( -3.491481338843133355E-15, 1.224646799147353207E-16, -1.000000000000000000 ) ) ;
#25 = PLANE ( 'NONE',  #164 ) ;
#26 = CARTESIAN_POINT ( 'NONE',  ( 1.117274028429802674E-13, 2.999519565323707552E-32, 32.00000000000000000 ) ) ;
#27 = VERTEX_POINT ( 'NONE', #15 ) ;
#28 =( LENGTH_UNIT ( ) NAMED_UNIT ( * ) SI_UNIT ( .MILLI., .METRE. ) );
#29 = MANIFOLD_SOLID_BREP ( 'Corps-Déplacer/Copier1[2]', #148 ) ;
#30 = DIRECTION ( 'NONE',  ( 0.0000000000000000000, -1.000000000000000000, 0.0000000000000000000 ) ) ;
#31 = CYLINDRICAL_SURFACE ( 'NONE', #59, 2.999999999999997335 ) ;
#32 = PERSON_AND_ORGANIZATION ( #205, #19 ) ;
#33 = PERSON_AND_ORGANIZATION ( #205, #19 ) ;
#34 = PERSON_AND_ORGANIZATION_ROLE ( 'design_supplier' ) ;
#35 = AXIS2_PLACEMENT_3D ( 'NONE', #10, #219, #152 ) ;
#36 = UNCERTAINTY_MEASURE_WITH_UNIT (LENGTH_MEASURE( 1.000000000000000082E-05 ), #28, 'distance_accuracy_value', 'NONE');
#37 = PERSON_AND_ORGANIZATION ( #205, #19 ) ;
#38 = ADVANCED_FACE ( 'NONE', ( #114, #181 ), #94, .T. ) ;
#39 = CARTESIAN_POINT ( 'NONE',  ( 0.0000000000000000000, 0.0000000000000000000, 0.0000000000000000000 ) ) ;
#40 = PRODUCT ( '379729', '379729', '', ( #173 ) ) ;
#41 = LOCAL_TIME ( 10, 33, 53.00000000000000000, #75 ) ;
#42 = EDGE_LOOP ( 'NONE', ( #180 ) ) ;
#43 = CIRCLE ( 'NONE', #35, 3.200000000000002842 ) ;
#44 = CARTESIAN_POINT ( 'NONE',  ( 2.793185071074506684E-13, -9.797174393178826052E-15, 80.00000000000000000 ) ) ;
#45 = DIRECTION ( 'NONE',  ( 0.0000000000000000000, -1.000000000000000000, 0.0000000000000000000 ) ) ;
#46 = APPROVAL ( #127, 'UNSPECIFIED' ) ;
#47 = CARTESIAN_POINT ( 'NONE',  ( 2.793185071074506684E-13, 3.199999999999992628, 80.00000000000000000 ) ) ;
#48 = CARTESIAN_POINT ( 'NONE',  ( -1.085582104150881436E-31, -2.999999999999996447, -3.109230721280550001E-17 ) ) ;
#49 = LOCAL_TIME ( 10, 33, 53.00000000000000000, #157 ) ;
#50 = CARTESIAN_POINT ( 'NONE',  ( 2.793185071074506684E-13, 2.399615652258959309E-32, 80.00000000000000000 ) ) ;
#51 = CALENDAR_DATE ( 2021, 8, 12 ) ;
#52 = ADVANCED_BREP_SHAPE_REPRESENTATION ( '379729', ( #23, #29, #170 ), #112 ) ;
#53 = PERSON_AND_ORGANIZATION_ROLE ( 'design_owner' ) ;
#54 = DATE_AND_TIME ( #139, #41 ) ;
#55 = APPLICATION_PROTOCOL_DEFINITION ( 'international standard', 'config_control_design', 1994, #113 ) ;
#56 = ADVANCED_FACE ( 'NONE', ( #8, #20 ), #2, .T. ) ;
#57 = CC_DESIGN_SECURITY_CLASSIFICATION ( #196, ( #147 ) ) ;
#58 = EDGE_LOOP ( 'NONE', ( #201 ) ) ;
#59 = AXIS2_PLACEMENT_3D ( 'NONE', #171, #14, #186 ) ;
#60 = CC_DESIGN_DATE_AND_TIME_ASSIGNMENT ( #140, #212, ( #145 ) ) ;
#61 = EDGE_LOOP ( 'NONE', ( #150 ) ) ;
#62 = APPLICATION_CONTEXT ( 'configuration controlled 3d designs of mechanical parts and assemblies' ) ;
#63 = CARTESIAN_POINT ( 'NONE',  ( 1.117274028429802674E-13, -4.084695395739824850E-15, 32.00000000000000000 ) ) ;
#64 = DIRECTION ( 'NONE',  ( 0.0000000000000000000, 0.0000000000000000000, 1.000000000000000000 ) ) ;
#65 = ADVANCED_FACE ( 'NONE', ( #203 ), #97, .F. ) ;
#66 = AXIS2_PLACEMENT_3D ( 'NONE', #26, #185, #216 ) ;
#67 = DIRECTION ( 'NONE',  ( 0.0000000000000000000, 1.000000000000000000, 0.0000000000000000000 ) ) ;
#68 = VERTEX_POINT ( 'NONE', #104 ) ;
#69 = CARTESIAN_POINT ( 'NONE',  ( 1.228470328561541638E-30, -6.836089494465371466E-32, 3.518478861378026544E-16 ) ) ;
#70 =( NAMED_UNIT ( * ) SI_UNIT ( $, .STERADIAN. ) SOLID_ANGLE_UNIT ( ) );
#71 = LOCAL_TIME ( 10, 33, 53.00000000000000000, #73 ) ;
#72 = DATE_AND_TIME ( #51, #16 ) ;
#73 = COORDINATED_UNIVERSAL_TIME_OFFSET ( 1, 0, .AHEAD. ) ;
#74 = APPROVAL_DATE_TIME ( #54, #80 ) ;
#75 = COORDINATED_UNIVERSAL_TIME_OFFSET ( 1, 0, .AHEAD. ) ;
#76 = COORDINATED_UNIVERSAL_TIME_OFFSET ( 1, 0, .AHEAD. ) ;
#77 = ORIENTED_EDGE ( 'NONE', *, *, #138, .F. ) ;
#78 = ORIENTED_EDGE ( 'NONE', *, *, #81, .F. ) ;
#79 = ORIENTED_EDGE ( 'NONE', *, *, #177, .F. ) ;
#80 = APPROVAL ( #5, 'UNSPECIFIED' ) ;
#81 = EDGE_CURVE ( 'NONE', #27, #27, #92, .T. ) ;
#82 = CARTESIAN_POINT ( 'NONE',  ( 1.247577885932214418E-13, -4.561079481688063383E-15, 35.73205080756887497 ) ) ;
#83 = DIRECTION ( 'NONE',  ( 0.0000000000000000000, -1.000000000000000000, 0.0000000000000000000 ) ) ;
#84 = CC_DESIGN_PERSON_AND_ORGANIZATION_ASSIGNMENT ( #32, #18, ( #147 ) ) ;
#85 = FACE_OUTER_BOUND ( 'NONE', #200, .T. ) ;
#86 = VERTEX_POINT ( 'NONE', #47 ) ;
#87 =( NAMED_UNIT ( * ) PLANE_ANGLE_UNIT ( ) SI_UNIT ( $, .RADIAN. ) );
#88 = LOCAL_TIME ( 10, 33, 53.00000000000000000, #76 ) ;
#89 = PERSON_AND_ORGANIZATION ( #205, #19 ) ;
#90 = ADVANCED_FACE ( 'NONE', ( #9 ), #187, .T. ) ;
#91 = DESIGN_CONTEXT ( 'detailed design', #113, 'design' ) ;
#92 = CIRCLE ( 'NONE', #193, 4.000000000000000000 ) ;
#93 = EDGE_LOOP ( 'NONE', ( #79 ) ) ;
#94 = CYLINDRICAL_SURFACE ( 'NONE', #198, 4.000000000000000000 ) ;
#95 = AXIS2_PLACEMENT_3D ( 'NONE', #221, #119, #45 ) ;
#96 = FACE_OUTER_BOUND ( 'NONE', #93, .T. ) ;
#97 = PLANE ( 'NONE',  #66 ) ;
#98 = CARTESIAN_POINT ( 'NONE',  ( 1.117274028429802674E-13, -3.000000000000002220, 32.00000000000000000 ) ) ;
#99 = DIRECTION ( 'NONE',  ( 0.0000000000000000000, -1.000000000000000000, 0.0000000000000000000 ) ) ;
#100 = AXIS2_PLACEMENT_3D ( 'NONE', #169, #135, #118 ) ;
#101 = VERTEX_POINT ( 'NONE', #188 ) ;
#102 = EDGE_CURVE ( 'NONE', #122, #122, #137, .T. ) ;
#103 = FACE_OUTER_BOUND ( 'NONE', #61, .T. ) ;
#104 = CARTESIAN_POINT ( 'NONE',  ( 2.765253220363762122E-13, 3.999999999999993339, 79.20000000000001705 ) ) ;
#105 = PERSON_AND_ORGANIZATION ( #205, #19 ) ;
#106 = DATE_AND_TIME ( #129, #49 ) ;
#107 = CIRCLE ( 'NONE', #95, 2.999999999999998224 ) ;
#108 = PERSON_AND_ORGANIZATION_ROLE ( 'creator' ) ;
#109 = CLOSED_SHELL ( 'NONE', ( #38, #56, #211, #160, #65 ) ) ;
#110 = APPROVAL_ROLE ( '' ) ;
#111 = DIRECTION ( 'NONE',  ( -3.491481338843133355E-15, 1.224646799147353207E-16, -1.000000000000000000 ) ) ;
#112 =( GEOMETRIC_REPRESENTATION_CONTEXT ( 3 ) GLOBAL_UNCERTAINTY_ASSIGNED_CONTEXT ( ( #36 ) ) GLOBAL_UNIT_ASSIGNED_CONTEXT ( ( #28, #87, #70 ) ) REPRESENTATION_CONTEXT ( 'NONE', 'WORKASPACE' ) );
#113 = APPLICATION_CONTEXT ( 'configuration controlled 3d designs of mechanical parts and assemblies' ) ;
#114 = FACE_OUTER_BOUND ( 'NONE', #213, .T. ) ;
#115 = EDGE_LOOP ( 'NONE', ( #144 ) ) ;
#116 = AXIS2_PLACEMENT_3D ( 'NONE', #63, #167, #99 ) ;
#117 = CARTESIAN_POINT ( 'NONE',  ( 2.765253220363762122E-13, -9.699202649247039195E-15, 79.20000000000001705 ) ) ;
#118 = DIRECTION ( 'NONE',  ( -4.275831445896958607E-31, -1.000000000000000000, -1.224646799147353207E-16 ) ) ;
#119 = DIRECTION ( 'NONE',  ( 3.491481338843133355E-15, -1.276467311168695266E-16, 1.000000000000000000 ) ) ;
#120 = DIRECTION ( 'NONE',  ( -3.491481338843133355E-15, 1.224646799147353207E-16, -1.000000000000000000 ) ) ;
#121 = AXIS2_PLACEMENT_3D ( 'NONE', #44, #202, #182 ) ;
#122 = VERTEX_POINT ( 'NONE', #98 ) ;
#123 = EDGE_CURVE ( 'NONE', #68, #68, #209, .T. ) ;
#124 = PERSON_AND_ORGANIZATION ( #205, #19 ) ;
#125 = APPROVAL_PERSON_ORGANIZATION ( #89, #46, #210 ) ;
#126 = APPROVAL_STATUS ( 'not_yet_approved' ) ;
#127 = APPROVAL_STATUS ( 'not_yet_approved' ) ;
#128 = AXIS2_PLACEMENT_3D ( 'NONE', #117, #24, #67 ) ;
#129 = CALENDAR_DATE ( 2021, 8, 12 ) ;
#130 = EDGE_LOOP ( 'NONE', ( #161 ) ) ;
#131 = CONICAL_SURFACE ( 'NONE', #158, 7.999999999999998224, 0.2617993877991502405 ) ;
#132 = EDGE_LOOP ( 'NONE', ( #77 ) ) ;
#133 = DIRECTION ( 'NONE',  ( -4.275831445896958607E-31, -1.000000000000000000, -1.224646799147353207E-16 ) ) ;
#134 = DIRECTION ( 'NONE',  ( 1.000000000000000000, 0.0000000000000000000, 0.0000000000000000000 ) ) ;
#135 = DIRECTION ( 'NONE',  ( 3.491481338843133355E-15, -1.224646799147353207E-16, 1.000000000000000000 ) ) ;
#136 = DIRECTION ( 'NONE',  ( 4.275831445896958607E-31, 1.000000000000000000, 1.224646799147353207E-16 ) ) ;
#137 = CIRCLE ( 'NONE', #116, 2.999999999999998224 ) ;
#138 = EDGE_CURVE ( 'NONE', #86, #86, #43, .T. ) ;
#139 = CALENDAR_DATE ( 2021, 8, 12 ) ;
#140 = DATE_AND_TIME ( #197, #88 ) ;
#141 = APPROVAL_PERSON_ORGANIZATION ( #195, #4, #223 ) ;
#142 = ADVANCED_FACE ( 'NONE', ( #96 ), #165, .F. ) ;
#143 = CC_DESIGN_APPROVAL ( #46, ( #145 ) ) ;
#144 = ORIENTED_EDGE ( 'NONE', *, *, #222, .T. ) ;
#145 = PRODUCT_DEFINITION ( 'UNKNOWN', '', #147, #91 ) ;
#146 = ORIENTED_EDGE ( 'NONE', *, *, #81, .T. ) ;
#147 = PRODUCT_DEFINITION_FORMATION_WITH_SPECIFIED_SOURCE ( 'ANY', '', #40, .NOT_KNOWN. ) ;
#148 = CLOSED_SHELL ( 'NONE', ( #90, #166, #142 ) ) ;
#149 = CC_DESIGN_PERSON_AND_ORGANIZATION_ASSIGNMENT ( #37, #34, ( #147 ) ) ;
#150 = ORIENTED_EDGE ( 'NONE', *, *, #177, .T. ) ;
#151 = DIRECTION ( 'NONE',  ( -3.491481338843133355E-15, 1.276467311168695266E-16, -1.000000000000000000 ) ) ;
#152 = DIRECTION ( 'NONE',  ( 0.0000000000000000000, 1.000000000000000000, 0.0000000000000000000 ) ) ;
#153 = CC_DESIGN_PERSON_AND_ORGANIZATION_ASSIGNMENT ( #33, #108, ( #145 ) ) ;
#154 = CARTESIAN_POINT ( 'NONE',  ( 1.117274028429802674E-13, 2.999519565323707552E-32, 32.00000000000000000 ) ) ;
#155 = PRODUCT_RELATED_PRODUCT_CATEGORY ( 'detail', '', ( #40 ) ) ;
#156 = CC_DESIGN_APPROVAL ( #80, ( #196 ) ) ;
#157 = COORDINATED_UNIVERSAL_TIME_OFFSET ( 1, 0, .AHEAD. ) ;
#158 = AXIS2_PLACEMENT_3D ( 'NONE', #190, #218, #30 ) ;
#159 = CC_DESIGN_DATE_AND_TIME_ASSIGNMENT ( #106, #1, ( #196 ) ) ;
#160 = ADVANCED_FACE ( 'NONE', ( #13, #85 ), #131, .T. ) ;
#161 = ORIENTED_EDGE ( 'NONE', *, *, #102, .F. ) ;
#162 = ORIENTED_EDGE ( 'NONE', *, *, #123, .T. ) ;
#163 = EDGE_LOOP ( 'NONE', ( #6 ) ) ;
#164 = AXIS2_PLACEMENT_3D ( 'NONE', #50, #120, #136 ) ;
#165 = PLANE ( 'NONE',  #100 ) ;
#166 = ADVANCED_FACE ( 'NONE', ( #103, #220 ), #31, .T. ) ;
#167 = DIRECTION ( 'NONE',  ( 3.491481338843133355E-15, -1.276467311168695266E-16, 1.000000000000000000 ) ) ;
#168 = APPLICATION_PROTOCOL_DEFINITION ( 'international standard', 'config_control_design', 1994, #62 ) ;
#169 = CARTESIAN_POINT ( 'NONE',  ( -6.413786353522005134E-31, 2.249653418127174030E-32, -1.836981421658449264E-16 ) ) ;
#170 = AXIS2_PLACEMENT_3D ( 'NONE', #11, #64, #134 ) ;
#171 = CARTESIAN_POINT ( 'NONE',  ( -6.413839710158237013E-31, 0.0000000000000000000, -1.836996703606440502E-16 ) ) ;
#172 = DIRECTION ( 'NONE',  ( 3.491481338843133355E-15, -1.276467311168695266E-16, 1.000000000000000000 ) ) ;
#173 = MECHANICAL_CONTEXT ( 'NONE', #62, 'mechanical' ) ;
#174 = PERSON_AND_ORGANIZATION_ROLE ( 'classification_officer' ) ;
#175 = APPROVAL_PERSON_ORGANIZATION ( #124, #80, #110 ) ;
#176 = SECURITY_CLASSIFICATION_LEVEL ( 'unclassified' ) ;
#177 = EDGE_CURVE ( 'NONE', #204, #204, #217, .T. ) ;
#178 = SHAPE_DEFINITION_REPRESENTATION ( #12, #52 ) ;
#179 = DIRECTION ( 'NONE',  ( 4.275831445896958607E-31, 1.000000000000000000, 1.224646799147353207E-16 ) ) ;
#180 = ORIENTED_EDGE ( 'NONE', *, *, #222, .F. ) ;
#181 = FACE_OUTER_BOUND ( 'NONE', #214, .T. ) ;
#182 = DIRECTION ( 'NONE',  ( 0.0000000000000000000, 1.000000000000000000, 0.0000000000000000000 ) ) ;
#183 = AXIS2_PLACEMENT_3D ( 'NONE', #154, #22, #133 ) ;
#184 = CC_DESIGN_PERSON_AND_ORGANIZATION_ASSIGNMENT ( #208, #53, ( #40 ) ) ;
#185 = DIRECTION ( 'NONE',  ( 3.491481338843133355E-15, -1.224646799147353207E-16, 1.000000000000000000 ) ) ;
#186 = DIRECTION ( 'NONE',  ( -4.456761796588770537E-31, -1.000000000000000000, -1.276467311168695266E-16 ) ) ;
#187 = PLANE ( 'NONE',  #183 ) ;
#188 = CARTESIAN_POINT ( 'NONE',  ( 1.117274028429802674E-13, -3.000000000000002220, 32.00000000000000000 ) ) ;
#189 = AXIS2_PLACEMENT_3D ( 'NONE', #69, #172, #206 ) ;
#190 = CARTESIAN_POINT ( 'NONE',  ( 1.768793315941859626E-13, -6.466615825481018303E-15, 50.66025403784432513 ) ) ;
#191 = FACE_OUTER_BOUND ( 'NONE', #132, .T. ) ;
#192 = APPROVAL_DATE_TIME ( #72, #46 ) ;
#193 = AXIS2_PLACEMENT_3D ( 'NONE', #82, #151, #83 ) ;
#194 = CALENDAR_DATE ( 2021, 8, 12 ) ;
#195 = PERSON_AND_ORGANIZATION ( #205, #19 ) ;
#196 = SECURITY_CLASSIFICATION ( '', '', #176 ) ;
#197 = CALENDAR_DATE ( 2021, 8, 12 ) ;
#198 = AXIS2_PLACEMENT_3D ( 'NONE', #39, #111, #179 ) ;
#199 = CC_DESIGN_PERSON_AND_ORGANIZATION_ASSIGNMENT ( #105, #174, ( #196 ) ) ;
#200 = EDGE_LOOP ( 'NONE', ( #146 ) ) ;
#201 = ORIENTED_EDGE ( 'NONE', *, *, #123, .F. ) ;
#202 = DIRECTION ( 'NONE',  ( -3.491481338843133355E-15, 1.224646799147353207E-16, -1.000000000000000000 ) ) ;
#203 = FACE_OUTER_BOUND ( 'NONE', #130, .T. ) ;
#204 = VERTEX_POINT ( 'NONE', #48 ) ;
#205 = PERSON ( 'UNSPECIFIED', 'UNSPECIFIED', 'UNSPECIFIED', ('UNSPECIFIED'), ('UNSPECIFIED'), ('UNSPECIFIED') ) ;
#206 = DIRECTION ( 'NONE',  ( -4.456761796588770537E-31, -1.000000000000000000, -1.276467311168695512E-16 ) ) ;
#207 = DATE_AND_TIME ( #194, #71 ) ;
#208 = PERSON_AND_ORGANIZATION ( #205, #19 ) ;
#209 = CIRCLE ( 'NONE', #128, 4.000000000000002665 ) ;
#210 = APPROVAL_ROLE ( '' ) ;
#211 = ADVANCED_FACE ( 'NONE', ( #191 ), #25, .F. ) ;
#212 = DATE_TIME_ROLE ( 'creation_date' ) ;
#213 = EDGE_LOOP ( 'NONE', ( #162 ) ) ;
#214 = EDGE_LOOP ( 'NONE', ( #78 ) ) ;
#215 = EDGE_LOOP ( 'NONE', ( #7 ) ) ;
#216 = DIRECTION ( 'NONE',  ( -4.275831445896958607E-31, -1.000000000000000000, -1.224646799147353207E-16 ) ) ;
#217 = CIRCLE ( 'NONE', #189, 2.999999999999996447 ) ;
#218 = DIRECTION ( 'NONE',  ( 3.491481338843133355E-15, -1.276467311168695266E-16, 1.000000000000000000 ) ) ;
#219 = DIRECTION ( 'NONE',  ( -3.491481338843133355E-15, 1.224646799147353207E-16, -1.000000000000000000 ) ) ;
#220 = FACE_OUTER_BOUND ( 'NONE', #42, .T. ) ;
#221 = CARTESIAN_POINT ( 'NONE',  ( 1.117274028429802674E-13, -4.084695395739824850E-15, 32.00000000000000000 ) ) ;
#222 = EDGE_CURVE ( 'NONE', #101, #101, #107, .T. ) ;
#223 = APPROVAL_ROLE ( '' ) ;
ENDSEC;
END-ISO-10303-21;
